+
- 
My Guitar Songbook
Good Evening  |  Sign In 
Double Stop Bends  

Info  |  Tutorial  |  Tab  |  Rate It  |  Share
Double Stop Bends - Robert Renman
 Arranged By: Robert Renman
 Audio Src: Tutorial
 Rated: ( 5 )  | 

Key A - 4/4 Time

   A
    _   _   __   _   _   _   _   _ 
   | | | | |  | | | | | | | | | | |
e|----------------------------------|
B|-----7--(7)br-----5---------------|
G|-----7--(7)br-5---5---------------|
D|----------------7---------7p5-----|
A|------------------------------7---|
E|-5--------------------------------|


*:·..·:*¨¨*:·..·:*¨¨*:·..·:*¨¨*


Key E (Transposed - Original Key A):
-----

   E
    _   _   __   _   _   _   _   _ 
   | | | | |  | | | | | | | | | | |
e|----------------------------------|
B|-----2--(2)br-----0---------------|
G|-----2--(2)br-0---0---------------|
D|----------------2---------2p0-----|
A|------------------------------2---|
E|-0--------------------------------|
Top
 
Previous Lick  Previous | Next  Next Lick