+
- 
My Guitar Songbook
Good Evening  |  Sign In 
Blues Guitar Filler Lick  

Info  |  Tutorial  |  Tab  |  Rate It  |  Share
Blues Guitar Filler Lick - Robert Renman
 Arranged By: Robert Renman
 Audio Src: Tutorial
 Rated: ( 5 )  | 

Key E - 4/4 Time

   E
    _   _   _   _   _   _   _   _ 
   | | | | | | | | | | | | | | | |
e|-------0-------------------------|
B|-----0---3p0---------------------|
G|-2b----------3-2p0---2---0h1-----|
D|-------------------2---2-----2-0-|
A|---------------------------------|
E|---------------------------------|


*:·..·:*¨¨*:·..·:*¨¨*:·..·:*¨¨*


Key A (Transposed - Original Key E):
-----

   A
    _   _   _   _   _   _   _   _ 
   | | | | | | | | | | | | | | | |
e|-------5-------------------------|
B|-----5---8p5---------------------|
G|-7b----------8-7p5---7---5h6-----|
D|-------------------7---7-----7-5-|
A|---------------------------------|
E|---------------------------------|
Top
 
Previous Lick  Previous | Next  Next Lick