+
- 
My Guitar Songbook
Good Evening  |  Sign In 
Blues Box Soloing (89)  

Info  |  Tutorial  |  Tab  |  Rate It  |  Share
Blues Box Soloing (89) - Neal Walter
 Arranged By: Neal Walter
 Audio Src: Tutorial
 Rated: ( 2 )  | 

Key A - 4/4 Time

   A
     _   _   _   _   _  
    | | | | | | | | | |
e|----5-----------------|
B|------7b--7vv-5-------|
G|-s6-------------5v----|
D|------------------7---|
A|----------------------|
E|----------------------| 


*:·..·:*¨¨*:·..·:*¨¨*:·..·:*¨¨*:·..·:


Key E (Transposed - Original Key A):
-----

   E
     _   _   _   _   _  
    | | | | | | | | | |
e|----0-----------------|
B|------2b--2vv-0-------|
G|-s1-------------0v----|
D|------------------2---|
A|----------------------|
E|----------------------|
Top
 
Previous Lick  Previous | Next  Next Lick