+
- 
My Guitar Songbook
Good Evening  |  Sign In 
Classic Robert Johnson Turnaround  

Info  |  Tutorial  |  Tab  |  Rate It  |  Share
Classic Robert Johnson Turnaround - Griff Hamlin
 Arranged By: Griff Hamlin
 Audio Src: Tutorial
 Rated: ( 4 )  | 

Key A - 4/4 Time

   A
    _ _   _ _   _ _   _ _     _
   | | | | | | | | | | | | | | | |
e|---5-----5-----5-----5-----------|
B|---------------------------------|
G|---------------------------------|
D|-------5---5-4---4-3---3-2-0-1-2-|
A|-0---0---------------------------|
E|---------------------------------|

   E7
    _ _   _ _     _ _   _ _   _ 
   | | | | | |   | | | | | | | |
e|-------0-----|-----------------|
B|---3-----3---|-----------------|
G|-----1-------|-----------------|
D|-------------|-2-2-4-4-2-2-4-4-|
A|-------------|-0-0-0-0-0-0-0-0-|
E|-0---------3-|-----------------| 


*:·..·:*¨¨*:·..·:*¨¨*:·..·:*¨¨*


Key E (Transposed - Original Key A):
-----

    E
    _ _   _ _   _ _   _ _     _
   | | | | | | | | | | | | | | | |
e|---0-----0-----0-----0-----------|
B|---------------------------------|
G|---------------------------------|
D|---------------------------------|
A|-------5---5-4---4-3---3-2-0-1-2-|
E|-0---0---------------------------|

    B7
    _ _   _ _     _ _   _ _   _ 
   | | | | | |   | | | | | | | |
e|-------2-----|-----------------|
B|---------0---|-----------------|
G|---2---------|-----------------|
D|-----1-------|-----------------|
A|-2-----------|-2-2-4-4-2-2-4-4-|
E|-----------3-|-0-0-0-0-0-0-0-0-|
Top
 
Previous Lick  Previous | Next  Next Lick