+
- 
My Guitar Songbook
Good Morning  |  Sign In 
Dust in the Wind

About  |  Tab (PDF)  |  Rate It  |  Share
Dust in the Wind - Kansas
 About this Song
 Artist3: Kansas  | Video | Songs
  Audio file & Tab from willc  Bill Charrette | Tabs
 Rated: ( 4 ) | Stats

 

  Standard Tuning - 4/4 Time

Suggested Picking Pattern:
-------------------------
      _   _   _
   | | | | | | |
e|---------------|
B|-*-------*-----|
G|-----*-------*-|
D|-*-*---*---*---|
A|-*-----*-------|
E|-*-----*-------|
   |     |
  Root note of the chord


Intro:
-----

   C               Cmaj7           Cadd9
      _   _   _       _   _   _       _   _   _
   | | | | | | |   | | | | | | |   | | | | | | |
e|---------------|---------------|---------------|
B|-1-------1-----|-0-------0-----|-3-------3-----|
G|-----0-------0-|-----0-------0-|-----0-------0-|
D|---2-------2---|---2-------2---|---2-------2---|
A|-3-----3-------|-3-----3-------|-3-----3-------|
E|---------------|---------------|---------------|

   C               Asus2           Asus4
      _   _   _       _   _   _       _   _   _
   | | | | | | |   | | | | | | |   | | | | | | |
e|---------------|---------------|---------------|
B|-1-------1-----|-0-------0-----|-3-------3-----|
G|-----0-------0-|-----2-------2-|-----2-------2-|
D|---2-------2---|---2-------2---|---2-------2---|
A|-3-----3-------|-0-----0-------|-0-----0-------|
E|---------------|---------------|---------------|

   Am              Asus2           Cadd9
      _   _   _       _   _   _       _   _   _
   | | | | | | |   | | | | | | |   | | | | | | |
e|---------------|---------------|---------------|
B|-1-------1-----|-0-------0-----|-3-------3-----|
G|-----2-------2-|-----2-------2-|-----0-------0-|
D|---2-------2---|---2-------2---|---2-------2---|
A|-0-----0-------|-0-----0-------|-3-----3-------|
E|---------------|---------------|---------------|

   C               Cmaj7           Cadd9
      _   _   _       _   _   _       _   _   _
   | | | | | | |   | | | | | | |   | | | | | | |
e|---------------|---------------|---------------|
B|-1-------1-----|-0-------0-----|-3-------3-----|
G|-----0-------0-|-----0-------0-|-----0-------0-|
D|---2-------2---|---2-------2---|---2-------2---|
A|-3-----3-------|-3-----3-------|-3-----3-------|
E|---------------|---------------|---------------|

   Am              Asus2           Asus4
      _   _   _       _   _   _       _   _   _
   | | | | | | |   | | | | | | |   | | | | | | |
e|---------------|---------------|---------------|
B|-1-------1-----|-0-------0-----|-3-------3-----|
G|-----2-------2-|-----2-------2-|-----2-------2-|
D|---2-------2---|---2-------2---|---2-------2---|
A|-0-----0-------|-0-----0-------|-0-----0-------|
E|---------------|---------------|---------------|

   Am
      _
   | | | | |
e|-----------|
B|-1-------3-|
G|-----2-----|
D|---2-------|
A|-0-----0-2-|
E|-----------|


C      G/B Am     Am/G
I close my eyes,
G           Dm7            Am          Am/G
Only for a moment and the moment's gone.
C   G/B  Am    Am/G
All my  dreams,
G               Dm7       Am       Am/G
Pass before my eyes a curiosity.
D/F# G6      Am   Am/G
Dust in the wind,
D/F#             G6         Am     Am/G
All they are is dust in the wind


Same old song,
Just a drop of water in an endless sea,
All we do,
Crumbles to the ground tho' we refuse to see.
Dust in the wind,
All they are is dust in the wind


Solo: 
----

3rd G/A,  F/A,  F/A,  Am,  AM/G,  
F/A,  F/A,  C,  C,  Am,  Am/G


Don't hang on,
Nothing lasts forever but the earth and sky.
It slips away,
And all your money won't another minute buy.
Dust in the wind,
All they are is dust in the wind


Dust in the wind,
All they are is dust in the wind
Dust in the wind,
All they are is dust in the wind


Outro:  Am, Asus2, Asus4, Am...  (fade out)
Top
Previous Song  Previous | Next  Next Song