+
- 
My Guitar Songbook
Good Evening  |  Sign In 
Everybody Hurts  

Info  |  Tab  |  Rate It  |  Share
Everybody Hurts - R.E.M.
  Artist: R.E.M.
 Audio Src: willc's Music Library
 Rated: ( 5 )  | 

Standard Tuning - 3/4 Time

Introduction:

   D                           G
    _ _ _ _ _     _ _ _ _ _     _ _ _ _ _     _ _ _ _ _
   | | | | | |   | | | | | |   | | | | | |   | | | | | |
e|-------2-----|-------2-----|-------3-----|-------3-----|
B|-----3---3---|-----3---3---|-----3---3---|-----3---3---|
G|---2-------2-|---2-------2-|---0-------0-|---0-------0-| (2 times)
D|-0-----------|-0-----------|-------------|-------------|
A|-------------|-------------|-------------|-------------|
E|-------------|-------------|-3-----------|-3-----------|
  

Verse 1:

   D                           G
    _ _ _ _ _     _ _ _ _ _     _ _ _ _ _     _ _ _ _ _
   | | | | | |   | | | | | |   | | | | | |   | | | | | |
e|-------2-----|-------2-----|-------3-----|-------3-----|
B|-----3---3---|-----3---3---|-----3---3---|-----3---3---|
G|---2-------2-|---2-------2-|---0-------0-|---0-------0-|
D|-0-----------|-0-----------|-------------|-------------|
A|-------------|-------------|-------------|-------------|
E|-------------|-------------|-3-----------|-3-----------|
  When your day is long
  And the night is yours alone
  When you're sure you've had enough of this

   D                           G
    _ _ _ _ _     _ _ _ _ _     _ _ _ _ _     _ _ _ _ _
   | | | | | |   | | | | | |   | | | | | |   | | | | | |
e|-------2-----|-------2-----|-------3-----|-------------|
B|-----3---3---|-----3---3---|-----3---3---|-----3-----3-|
G|---2-------2-|---2-------2-|---0-------0-|---0-----0---|
D|-0-----------|-0-----------|-------------|-------------|
A|-------------|-------------|-------------|-------------|
E|-------------|-------------|-3-----------|-3-----2-----|
  life, well hang on


Chorus 1:

  Em                           A
    _ _ _ _ _     _ _ _ _ _     _ _ _ _ _     _ _ _ _ _ 
   | | | | | |   | | | | | |   | | | | | |   | | | | | |
e|-------0-----|-------0-----|-------0-----|-------0-----|
B|-----0---0---|-----0---0---|-----2---2---|-----2---2---|
G|---0-------0-|---0-------0-|---2-------2-|---2-------2-|
D|-------------|-------------|-------------|-------------|
A|-------------|-------------|-0-----------|-0-----------|
E|-0-----------|-0-----------|-------------|-------------|
  Don't let yourself go
  Cause everybody cries
            
  Em                           A
    _ _ _ _ _     _ _ _ _ _     _ _ _ _ _     _ _ _ _ _ 
   | | | | | |   | | | | | |   | | | | | |   | | | | | |
e|-------0-----|-------0-----|-------0-----|-------------|
B|-----0---0---|----0----0---|-----2---2---|-------------|
G|---0-------0-|--0--------0-|---2-------2-|-------------|
D|-------------|-------------|-------------|-------------|
A|-------------|-------------|-0-----------|-0-(stop)----|
E|-0-----------|-0-----------|-------------|-------------|
  And everybody hurts


Verse 2:

   D                           G
    _ _ _ _ _     _ _ _ _ _     _ _ _ _ _     _ _ _ _ _
   | | | | | |   | | | | | |   | | | | | |   | | | | | |
e|-------2-----|-------2-----|-------3-----|-------3-----|
B|-----3---3---|-----3---3---|-----3---3---|-----3---3---|
G|---2-------2-|---2-------2-|---0-------0-|---0-------0-|
D|-0-----------|-0-----------|-------------|-------------|
A|-------------|-------------|-------------|-------------|
E|-------------|-------------|-3-----------|-3-----------|
  sometimes
  Sometimes everything is wrong
  Now it's time to sing along
  When your day is night alone
  If you feel like letting go
  If you think you've had too much of this

   D                           G
    _ _ _ _ _     _ _ _ _ _     _ _ _ _ _     _ _ _ _ _
   | | | | | |   | | | | | |   | | | | | |   | | | | | |
e|-------2-----|-------2-----|-------3-----|-------------|
B|-----3---3---|-----3---3---|-----3---3---|-----3-----3-|
G|---2-------2-|---2-------2-|---0-------0-|---0-----0---|
D|-0-----------|-0-----------|-------------|-------------|
A|-------------|-------------|-------------|-------------|
E|-------------|-------------|-3-----------|-3-----2-----|
  life, well hang on


Chorus 2:

  Em                           A
    _ _ _ _ _     _ _ _ _ _     _ _ _ _ _     _ _ _ _ _ 
   | | | | | |   | | | | | |   | | | | | |   | | | | | |
e|-------0-----|-------0-----|-------0-----|-------0-----|
B|-----0---0---|----0----0---|-----2---2---|-----2-------|
G|---0-------0-|--0--------0-|---2-------2-|---2---------|
D|-------------|-------------|-------------|-------------|
A|-------------|-------------|-0-----------|-0-----------|
E|-0-----------|-0-----------|-------------|---------3-2-|
  Cause everbody hurts
  Take comfort in your friends
            
  Em                           A
    _ _ _ _ _     _ _ _ _ _     _ _ _ _ _     _ _ _ _ _ 
   | | | | | |   | | | | | |   | | | | | |   | | | | | |
e|-------0-----|-------0-----|-------0-----|-------0-----|
B|-----0---0---|----0----0---|-----2---2---|-----2---2---|
G|---0-------0-|--0--------0-|---2-------2-|---2-------2-|
D|-------------|-------------|-------------|-------------|
A|-------------|-------------|-0-----------|-0-----------|
E|-0-----------|-0-----------|-------------|-------------|
  And everybody hurts


Bridge:

   F#m                        Bm
    _ _ _ _ _     _ _ _ _ _     _ _ _ _ _     _ _ _ _ _ 
   | | | | | |   | | | | | |   | | | | | |   | | | | | |
e|-------2-----|-------2-----|-------2-----|-------2-----|
B|-----2---2---|-----2---2---|-----3---3---|-----3---3---|
G|---2-------2-|---2-------2-|---4-------4-|---4-------4-|
D|-------------|-------------|-------------|-------------|
A|-------------|-------------|-2-----------|-2-----------|
E|-2-----------|-2-----------|-------------|-------------|
  Don't throw your hand,
  Oh no /  /  /  /  /
  Don't throw your hand

   C                           G
    _ _ _ _ _     _ _ _ _ _     _ _ _ _ _     _ _ _ _ _ 
   | | | | | |   | | | | | |   | | | | | |   | | | | | |
e|-------0-----|-------0-----|-------3-----|-------3-----|
B|-----1---1---|-----1---1---|-----3---3---|-----3---3---|
G|---0-------0-|---0-------0-|---0-------0-|---0-------0-|
D|-------------|-------------|-------------|-------------|
A|-3-----------|-3-----------|-------------|-------------|
E|-------------|-------------|-3-----------|-3-----------|
  If you feel like letting go

  C                   C/B     Am
    _ _ _ _ _     _ _ _ _ _     _ _ _ _ _     _ _ _ _ _ 
   | | | | | |   | | | | | |   | | | | | |   | | | | | |
e|-------0-----|-------------|-------0-----|-------------|
B|-----1---1---|-----1-----1-|-----1---1---|-------------|
G|---0-------0-|---0-----0---|---2-------0-|-------------|
D|-------------|-------------|-------------|-------------|
A|-3-----------|-3-----2-----|-0-----------|-0-(stop)----|
E|-------------|-------------|-------------|-------------|
  No, no, no you're not alone 


Verse 3: 
 
   D                           G
    _ _ _ _ _     _ _ _ _ _     _ _ _ _ _     _ _ _ _ _
   | | | | | |   | | | | | |   | | | | | |   | | | | | |
e|-------2-----|-------2-----|-------3-----|-------3-----|
B|-----3---3---|-----3---3---|-----3---3---|-----3---3---|
G|---2-------2-|---2-------2-|---0-------0-|---0-------0-|
D|-0-----------|-0-----------|-------------|-------------|
A|-------------|-------------|-------------|-------------|
E|-------------|-------------|-3-----------|-3-----------|
  If you're on your own in this life
  The days and nights are long
  When you think you've had too much of this

   D                           G
    _ _ _ _ _     _ _ _ _ _     _ _ _ _ _     _ _ _ _ _
   | | | | | |   | | | | | |   | | | | | |   | | | | | |
e|-------2-----|-------2-----|-------3-----|-------------|
B|-----3---3---|-----3---3---|-----3---3---|-----3-----3-|
G|---2-------2-|---2-------2-|---0-------0-|---0-----0---|
D|-0-----------|-0-----------|-------------|-------------|
A|-------------|-------------|-------------|-------------|
E|-------------|-------------|-3-----------|-3-----2-----|
  life, to hang on


Chorus 3: 

  Em                           A
    _ _ _ _ _     _ _ _ _ _     _ _ _ _ _     _ _ _ _ _ 
   | | | | | |   | | | | | |   | | | | | |   | | | | | |
e|-------0-----|-------0-----|-------0-----|-------0-----|
B|-----0---0---|----0----0---|---------2---|-----2-------|
G|---0-------0-|--0--------0-|-----2-----2-|---2---------|
D|-------------|-------------|---2---------|-------------|
A|-------------|-------------|-0-----------|-0-----------|
E|-0-----------|-0-----------|-------------|---------3-2-|
  Well everybody hurts  
  Sometimes everybody cries

  Em                           A
    _ _ _ _ _     _ _ _ _ _     _ _ _ _ _     _ _ _ _ _ 
   | | | | | |   | | | | | |   | | | | | |   | | | | | |
e|-------0-----|-------0-----|-------0-----|-------------|
B|-----0---0---|----0----0---|---------2---|-------------|
G|---0-------0-|--0--------0-|-----2-----2-|-------------|
D|-------------|-------------|---2---------|-------------|
A|-------------|-------------|-0-----------|-0-(stop)----|
E|-0-----------|-0-----------|-------------|-------------|
  And everybody hurts


Verse 4: 
 
   D                           G
    _ _ _ _ _     _ _ _ _ _     _ _ _ _ _     _ _ _ _ _
   | | | | | |   | | | | | |   | | | | | |   | | | | | |
e|-------2-----|-------2-----|-------3-----|-------3-----|
B|-----3---3---|-----3---3---|-----3---3---|-----3---3---|
G|---2-------2-|---2-------2-|---0-------0-|---0-------0-| (Fade out)
D|-0-----------|-0-----------|-------------|-------------|
A|-------------|-------------|-------------|-------------|
E|-------------|-------------|-3-----------|-3-----------|
  sometimes
  But everybody hurts sometimes
  So hold on, hold on
  Hold on, hold on
      (na, na, na, na, na)
  Hold on, hold on (agh)
  Hold on, hold on
      (na, na, na, na, na)
  Everybody hurts
  Na, na, na, na, na
  You are not alone
Top
 
Previous Song  Previous | Next  Next Song