+
- 
My Guitar Songbook
Good Evening  |  Sign In 
Back in Black  

Info  |  Tutorial  |  Tab  |  Rate It  |  Share
Back in Black - AC/DC
  Artist: AC/DC
 Audio Src: willc's Music Library
 Rated: ( 2 )  | 

Standard Tuning - Moderate = 95 bpm - 4/4 Time

    _   _   _   _     _   _   _   _ 
   | | | | | | | |   | | | | | | | |
e|-----------------|-----------------|
B|-----------------|-----------------|
G|-x---x---x---x---|-x---x-----------|
D|-x---x---x---x---|-x---x-----------|
A|-x---x---x---x---|-x---x-----------|
E|-----------------|-----------------|


Intro and Riff played throughout Verses:
---------------------------------------

   E   D       A
    _   _ _ _   _     _   _ _ _   _ __ _
   | | | | | | | |   | | | | | | | |  | |
e|-----------------|-------3-0------------|
B|-----3-3-3-------|-----------3-0--------|
G|-----2-2-2---2-2-|-2-------------2br2p0-|
D|-2---0-0-0---2-2-|-2--------------------|
A|-2-----------0-0-|-0--------------------|
E|-0---------------|----------------------|

   E   D       A
    _   _ _ _   _     _   _ _   _ _   _
   | | | | | | | |   | | | | | | | | | |
e|-----------------|---------------------|
B|-----3-3-3-------|---------------------|
G|-----2-2-2---2-2-|-2-------------------|
D|-2---0-0-0---2-2-|-2-------------------|
A|-2-----------0-0-|-0---2---2---2---2---|
E|-0---------------|-------4---5---6---7-|


Intro: [2x]


Verse 1:
-------

E              D                  A
Back in black    I hit the sack,   I've been too long, I'm glad to be 
               E           D                   A
Back, yes,I'm     let loose    from the noose,     That's kept me hangin' 
              E                    D                        A
about. I keep lookin' at the sky 'cause it's gettin' me high.  Forget the 
                                    E               D             A
Hearse 'cause I'll never die. I got   nine lives,     cat's eyes, Abusin' 

Ev'ry one of them and runnin' wild.  'Cause I'm


Chorus:
------

      A E  B A  B      A E  B A  B      G D  A G  A      G D  A G  A 
    __   __   __     __   __   __     __   __   __     __   __   __
   |  | |  | |  |   |  | |  | |  |   |  | |  | |  |   |  | |  | |  |
e|----------------|----------------|----x-x---------|----x-x---------|
B|----------------|----------------|----3-3---------|----3-3---------|
G|----2----4-4--4-|(4)-2----4-4--4-|(4)-0-2--2----2-|(2)-0-2--2----2-|
D|----2-2--4-4--4-|(4)-2-2--4-4--4-|(4)-0-0--2----2-|(2)-0-0--2----2-|
A|----0-2--2-0--2-|(2)-0-2--2-0--2-|(2)-x----0----0-|(0)-x----0----0-|
E|------0---------|------0---------|----3------3b---|----3------3b---|
 back,  yes I'm  back.        Well I'm back       yes  I'm   back 

      A E  B A  B      A E  B A  B   G                D
    __   __   __     __   __   __     __   __   __     __   __   __
   |  | |  | |  |   |  | |  | |  |   |  | |  | |  |   |  | |  | |  |
e|----------------|----------------|-3--3-3---------|-2--2-2---------|
B|----------------|----------------|-3--3-3---------|-3--3-2---------|
G|----2----4-4--4-|(4)-2----4-4--4-|-0--0-2---------|-2--2-2---------|
D|----2-2--4-4--4-|(4)-2-2--4-4--4-|-0--0-0---------|-0--0-0---------|
A|----0-2--2-0--2-|(2)-0-2--2-0--2-|-x--x-x---------|----------------|
E|------0---------|------0---------|-3--3-3---------|----------------|
   well I'm  back     back well I'm back in black, yes, I'm back in black


Verse 2:
-------

E              D                  A
Back in the back of a Cadillac. Number one with a bullet I'm a power 
               E           D                   A
Pack. Yes, I'm  in a bang with a gang.  They gotta catch me if they 
              E                    D                        A
Want me to hang. Cause I'm back on the track, and I'm beatin' the flack. 
                                    E               D             A
Nobody's gonna get me on another rap. So,look at me now,I'm just makin, my 

Play, don't try to push your luck, just get out of my way. Cause I'm


Chorus:
------

      A E  B A  B      A E  B A  B      G D  A G  A      G D  A G  A 
    __   __   __     __   __   __     __   __   __     __   __   __
   |  | |  | |  |   |  | |  | |  |   |  | |  | |  |   |  | |  | |  |
e|----------------|----------------|----x-x---------|----x-x---------|
B|----------------|----------------|----3-3---------|----3-3---------|
G|----2----4-4--4-|(4)-2----4-4--4-|(4)-0-2--2----2-|(2)-0-2--2----2-|
D|----2-2--4-4--4-|(4)-2-2--4-4--4-|(4)-0-0--2----2-|(2)-0-0--2----2-|
A|----0-2--2-0--2-|(2)-0-2--2-0--2-|(2)-x----0----0-|(0)-x----0----0-|
E|------0---------|------0---------|----3------3b---|----3------3b---|
 back,  yes I'm  back.        Well I'm back       yes  I'm   back 

      A E  B A  B      A E  B A  B   G                D
    __   __   __     __   __   __     __   __   __     __   __   __
   |  | |  | |  |   |  | |  | |  |   |  | |  | |  |   |  | |  | |  |
e|----------------|----------------|-3--3-3---------|-2--2-2---------|
B|----------------|----------------|-3--3-3---------|-3--3-2---------|
G|----2----4-4--4-|(4)-2----4-4--4-|-0--0-2---------|-2--2-2---------|
D|----2-2--4-4--4-|(4)-2-2--4-4--4-|-0--0-0---------|-0--0-0---------|
A|----0-2--2-0--2-|(2)-0-2--2-0--2-|-x--x-x---------|----------------|
E|------0---------|------0---------|-3--3-3---------|----------------|
   well I'm  back     back well I'm back in black, yes, I'm back in black


Rythum Guitar at Solo:
---------------------

  _   _ _   _ _   _ _   _ _   _ _     _ _   _ _   _ _   _
   | | | | | | | | | | | | | | | |   | | | | | | | | | |
e|---------------------------------|---------------------|
B|---------------------------------|---------------------|
G|---------------------------------|---------------2---2-|
D|-2---------------2-----2-----2---|-------------2-2-2-2-| [4x]
A|-2---5-----4-----2-----2-----2---|---5-----4---2-0-2-0-|
E|-0-0---0-0---0-0---0-0---0-0---0-|-0---0-0---0-0---0---|


Chorus:
------

      A E  B A  B      A E  B A  B      G D  A G  A      G D  A G  A 
    __   __   __     __   __   __     __   __   __     __   __   __
   |  | |  | |  |   |  | |  | |  |   |  | |  | |  |   |  | |  | |  |
e|----------------|----------------|----x-x---------|----x-x---------|
B|----------------|----------------|----3-3---------|----3-3---------|
G|----2----4-4--4-|(4)-2----4-4--4-|(4)-0-2--2----2-|(2)-0-2--2----2-|
D|----2-2--4-4--4-|(4)-2-2--4-4--4-|(4)-0-0--2----2-|(2)-0-0--2----2-|
A|----0-2--2-0--2-|(2)-0-2--2-0--2-|(2)-x----0----0-|(0)-x----0----0-|
E|------0---------|------0---------|----3------3b---|----3------3b---|
 back,  yes I'm  back.        Well I'm back       yes  I'm   back 

      A E  B A  B      A E  B A  B   G                 D
    __   __   __     __   __   __     __   __   __     __   __   __
   |  | |  | |  |   |  | |  | |  |   |  | |  | |  |   |  | |  | |  |
e|----------------|----------------|-3--3-3---------|-2--2-2---------|
B|----------------|----------------|-3--3-3---------|-3--3-2---------|
G|----2----4-4--4-|(4)-2----4-4--4-|-0--0-2---------|-2--2-2---------|
D|----2-2--4-4--4-|(4)-2-2--4-4--4-|-0--0-0---------|-0--0-0---------|
A|----0-2--2-0--2-|(2)-0-2--2-0--2-|-x--x-x---------|----------------|
E|------0---------|------0---------|-3--3-3---------|----------------|
   well I'm  back     back well I'm back in black, yes, I'm back in black


Bridge:
------
    _ _ _   _ _  
   | | | | | | | | | | | |
e|-------------------------|      
B|-------------------------|      
G|-------------------------| [4x] 
D|-------------------------|      
A|---5-4-2-4---2---2---2---|      
E|-0---------3b--5---6---7-|      
    _ _ _   _ _  
   | | | | | | | | | | | |
e|-------------------------|
B|-------------------------|
G|-------------------------| [2x]
D|---5-4-2-4---2---2---2---|
A|-0---------3---5---6---7-|
E|-------------------------|
    _ _ _   _ _  
   | | | | | | | | | | | |
e|-------------------------|
B|-------------------------|
G|-------------------------| [2x]
D|-------------------------|
A|---5-4-2-4---2---2---2---|
E|-0---------3---5---6---7-|


Chorus:
------

      A E  B A  B      A E  B A  B      G D  A G  A      G D  A G  A 
    __   __   __     __   __   __     __   __   __     __   __   __
   |  | |  | |  |   |  | |  | |  |   |  | |  | |  |   |  | |  | |  |
e|----------------|----------------|----x-x---------|----x-x---------|
B|----------------|----------------|----3-3---------|----3-3---------|
G|----2----4-4--4-|(4)-2----4-4--4-|(4)-0-2--2----2-|(2)-0-2--2----2-|
D|----2-2--4-4--4-|(4)-2-2--4-4--4-|(4)-0-0--2----2-|(2)-0-0--2----2-|
A|----0-2--2-0--2-|(2)-0-2--2-0--2-|(2)-x----0----0-|(0)-x----0----0-|
E|------0---------|------0---------|----3------3b---|----3------3b---|
 back,  yes I'm  back.        Well I'm back       yes  I'm   back 

      A E  B A  B      A E  B A  B   G                 D
    __   __   __     __   __   __     __   __   __     __   __   __
   |  | |  | |  |   |  | |  | |  |   |  | |  | |  |   |  | |  | |  |
e|----------------|----------------|-3--3-3---------|-2--2-2---------|
B|----------------|----------------|-3--3-3---------|-3--3-2---------|
G|----2----4-4--4-|(4)-2----4-4--4-|-0--0-2---------|-2--2-2---------|
D|----2-2--4-4--4-|(4)-2-2--4-4--4-|-0--0-0---------|-0--0-0---------|
A|----0-2--2-0--2-|(2)-0-2--2-0--2-|-x--x-x---------|----------------|
E|------0---------|------0---------|-3--3-3---------|----------------|
   well I'm  back     back well I'm back in black, yes, I'm back in black


Rythum Guitar at 2nd Solo:
-------------------------

      _ _   _ _   _ _   _ _   _ _     _ _   _ _   _ _   
   | | | | | | | | | | | | | | | |   | | | | | | | | | |
e|---------------------------------|---------------------|
B|---------------------------------|---------------------|
G|---------------------------------|---------------2---2-|
D|-2---------------2-----2-----2---|-------------2-2-2-2-| [4x fade out]
A|-2---5-----4-----2-----2-----2---|---5-----4---2-0-2-0-|
E|-0-0---0-0---0-0---0-0---0-0---0-|-0---0-0---0-0---0---|
Top
 
Previous Song  Previous | Next  Next Song