A +
A - 


Top
My Guitar Songbook
Good Evening  |  Sign In 
Straight from the Heart...  
  Info  |  Tutorial  |  Tab (PDF)  |  Rate  |  Share
Straight from the Heart... - Helmut Bickel       mp3
 Song Info
  Artist: Bryan Adams
 Tutorial & Tab: Helmut Bickel
  Audio Clip from the Tutorial
 Rated: ( 1 ) |

 

Capo 2nd Fret - 4/4 Time
Intro: (2 times)
-----

   C
    _   _   _   _
   | | | | | | | |
e|-3---3---3---3---|
B|-1-1---1---1---1-|
G|-----------------|
D|-----2-------2---|
A|-3-------3-------|
E|-----------------|

Verse:
-----

   C
    _   _   _   _     _   _   _   _
   | | | | | | | |   | | | | | | | |
e|---3-3-3-3-3-3-3-|-3-1-0-0---------|
B|---1-1-1-1-1-1-1-|-1---1-1-------1-|
G|-----------------|-------------0---|
D|-----2-------2---|-----2-----2-----|
A|-3-------3-------|-3---------------|
E|-----------------|-----------------|
1. I could start dreamin'.. it never ends
2. You say it's easy but who's to say

   C
    _   _   _   _     _   _   _   _
   | | | | | | | |   | | | | | | | |
e|---3-3-3-3-3-3-3-|-3-1-0-0-------0-|
B|---1-1-1-1-1-1-1-|-1---1-1-----3---|
G|-----------------|-----------0-----|
D|-----2-------2---|-----2-----------|
A|-3-------3-------|-3---------------|
E|-----------------|-----------------|
1. As long as you're gone .... I've been 
2. That we'd be able ... But it's easier

   Bb  F         Bb      G       C
        _   _     _   _     _     _   _   _   _
   | | | | | |   | | | | | | |   | | | | | | | |
e|-------------|---------0-----|---------0-------|
B|-3---1-----1-|-3-----3-0-3-1-|-1-----1---1---1-|
G|-3---2---2---|-3---3---------|-----0-------0---|
D|-3-----3-----|-3-3-------0---|---2-------------|
A|-------------|---------------|-3---------------|
E|-----1-------|---------3-----|-----------------|
1. Dreamin'        straight from the heart
2. Comin'          straight from the heart


Chorus:
------

   C             F   G         C
        _   _         _   _     _   _   _   _
   | | | | | |   | | | | | |   | | | | | | | |
e|-----0-0-----|-5-5-3---3-0-|---------0-------|
B|-----1-1-3-1-|-----0---0-1-|-------1-1-3-3-1-|
G|---------0---|-5-5---------|-----0-------0---|
D|---------2---|-3-3---0-----|---2---------2---|
A|-3---3-------|-------------|-3-------3-------|
E|-------------|-----3-------|-----------------|
 Ohh, give it to me straight .... Tell me we can 

   F   G         C          G      Am      G     F
        _   _     _   _   _   _     _   _   _   _
   | | | | | |   | | | | | | | |   | | | | | | | |
e|-5-5-3---5-0-|-------0-0-------|-------------0---|
B|-----0---0-1-|-----1---1-3-3-1-|-1-----1-1-3---1-|
G|-5-5---------|---0---------0---|-2---2---0-----2-|
D|-3-3---0-----|-----------------|---2-----------3-|
A|-------------|-3-------3---2---|-0---------------|
E|-----3-------|-----------------|---------3-------|
 Make another start   You know ... as long as I know

           G     C
    _   _   _   _     _   _   _   _
   | | | | | | | |   | | | | | | | |
e|---------0-------|---------0-------|
B|-------1-0---3-1-|-------1---1---1-|
G|-----2-----------|-----0-------0---|
D|---3-------0-----|---2-------------|
A|-----------------|-3---------------|
E|-1-------3-------|-----------------|
 It's comin' straight from the heart


....................


Lyrics and Chords:
-----------------

Verse:
-----

C                             '
I could start dreamin' but it never ends
C                                     '
As long as you're gone we may as well pretend
[Bb        F ]
I've been dreamin'
[Bb     G    ]           C      '
Comin' straight from the heart
C                             '
You say it's easy but who's to say
C                                     '
That we'd be able to keep it this way?
[Bb        F ]
But it's easier
[Bb     G    ]           C      '
Comin' straight from the heart


Chorus:
------
                  [F         G]      C
Ohh, give it to me straight from the heart
             [ F     G]      C
Tell me we can make another start
                     [Am     G]       F
You know I'll never go - as long as I know
            [  C      G     ]  C     '
It's comin' straight from the heart


I see you on the street some other time
And all my words would just fall out of line
While we're dreamin'
Straight from the heart

Ohh, give it to me straight from the heart
Tell me we can make one more start
You know I'll never go - as long as I know
It's comin' straight from the heart

Oh

Don't ever leave me darlin'
Ohh, straight from the heart
Tell me we can make one more start
You know I'll never go- as long as I know
You'll give it to me now
Straight from the heart
Tell me we can make one more start
You know I'll never go-as long as I know
It's coming straight from the heart

Give it to me
Oh no, oh no
Straight from the heart
You know I'll never go-as long as I know
It's coming straight from the heart
Previous Song  Previous | Next  Next Song