A +
A - 


Top
My Guitar Songbook
Good Morning  |  Sign In 
And I Love Her (Fingerstyle)  
  About  |  Tutorial  |  Tab (PDF)  |  Rate It  |  Share
And I Love Her (Fingerstyle) - GuitarNick       mp3
 About this Song
  Artist: The Beatles
 Tutorial & Tab: GuitarNick
  Audio Clip from the Tutorial
 Rated: ( 1 ) |

 

Standard Tuning - 4/4 Time
Intro:
-----

               Am                    Em
      _   _                 _   _
   | | | | |   | | | |   | | | | |   | | | |
e|-----------|---0-----|-----------|---0-----|
B|-----------|---1-----|-----------|---0-----|
G|-------0---|---2-----|-------0---|---0-----|
D|-----0---4-|-2-------|-----0---4-|-2-------|
A|-----------|---------|-----------|---------|
E|-----------|---------|-----------|---------|
      _   _
   | | | | |
e|-----------|
B|-----------|
G|-------0---|
D|-----0---4-|
A|-----------|
E|-----------|


Verse 1 & 2:
-----------

   Am        Em        Am        Em
                                  _
   | | | |   | | | |   | | | |   | | | | |
e|---------|-2-0-3---|---------|-2-0-------|
B|-----0-1-|-0-------|-----0-1-|-0---------|
G|---2-----|-0-------|---2-----|-0---------|
D|-2-------|---------|---------|-----------|
A|-0-------|---------|-0-------|-----------|
E|---------|-0-------|---------|-0---------|
1. I give her all my love. That's all I do
2. She gives me everything. And tenderly

  Am         Em        C         D

   | | | |   | | | |   | | | |   | | | |
e|---------|-2-0-3---|---3-0---|---------|
B|-----0-1-|-0-------|---1---1-|-0-------|
G|---2-----|-0-------|---0-----|-2-2-----|
D|---------|---------|---------|-0---2-0-|
A|-0-------|---------|-3-------|---------|
E|---------|-0-------|---------|-2-------|
1. And if you saw my love. You'd love her too
2. The kiss my lover brings. She brings to me and

   G 
                  _   _
   | | | |   | | | | | |
e|---------|-------------|
B|-----0---|-------------|
G|-----0---|---------0---|
D|-2---0---|-------0---4-|
A|---------|-------------|
E|-----3---|-------------|
1. I love her
2. I love her


Bridge:
------

   Em        D         Em        Dm7

   | | | |   | | | |   | | | |   | | | |
e|---------|---------|---2-----|---------|
B|---0-0-0-|-3-------|---0-3-0-|-3-------|
G|-----0---|-2-------|---0-----|-2-------|
D|-----2---|-0-------|---------|-0-------|
A|---------|---------|---------|-2-------|
E|-0-------|-2-------|-0-------|---------|
 A love like ours Could never die

   Em        Dm7       D           D
                        _               _   _
   | | | |   | | | |   | | | | |   | | | | | |
e|---2-----|---------|-----------|-------------|
B|---0-3-0-|-3---0-3-|-0---------|-------------|
G|---------|-2-------|-2-2-2-----|---------0---|
D|---------|-0-------|-0---------|-------0---4-|
A|---------|-2-------|-----------|-------------|
E|-0-------|---------|-----------|-------------|
 As long as I have you near me


Verse 3:
-------

   Am        Em        Am        Em
                                  _
   | | | |   | | | |   | | | |   | | | | |
e|---------|-2-0-3---|---------|-2-0-------|
B|-----0-1-|-0-------|-----0-1-|-0---------|
G|---2-----|-0-------|---2-----|-0---------|
D|---------|---------|---------|-----------|
A|-0-------|---------|-0-------|-----------|
E|---------|-0-------|---------|-0---------|
 Bright are the stars that shine.
                        Dark is the sky

   Am        Em        C         D
                                        _
   | | | |   | | | |   | | | |   | | | | |
e|---------|-2-0-3---|---3-0---|-----------|
B|-----0-1-|-0-------|---1---1-|-0---------|
G|---2-----|-0-------|---0-----|-2-2-------|
D|---------|---------|---------|-0-----2-0-|
A|-0-------|---------|-3-------|-----------|
E|---------|-0-------|---------|-2---------|
I know this love of mine will never die. And I

   G         G
                    _   _
   | | | |   | | | | | | |
e|---------|---------------|
B|---0-----|---------------|
G|---0-----|-----------0---|
D|-2-0-----|---------0---4-|
A|---------|---------------|
E|---3-----|---------------|
 Love her


Solo:
----

   Am           Em         Am            Em
      _   _                   _   _
   | | | | | |   | | | |   | | | | | |   | | | |
e|-1-----------|---------|-1-----------|---------|
B|-2-----------|---------|-2-----------|---------|
G|-2-----------|---0-----|-2-----------|---------|
D|-0---------4-|-2-------|-0---------4-|-2-------|
A|-0---0-2-3---|---------|-0---0-2-3---|---------|
E|-------------|---------|-------------|---------|

   Am            Em        C         D
      _   _
   | | | | | |   | | | |   | | | |   | | | |
e|-1-----------|---------|---------|---------|
B|-2-----------|---------|---------|---------|
G|-2-----------|---0-----|---0-----|---------|
D|-0---------4-|-2-------|-----2---|---------|
A|-0---0-2-3---|---------|-------3-|-2-0-----|
E|-------------|---------|---------|-----0-0-|

   G         G
                  _ _
   | | | |   | | | | | |
e|---------|-------------|
B|---------|-------------|
G|---------|-------------|
D|---------|---2---------|
A|---4-----|-----4-2-0-2-|
E|-2-------|-------------|


Verse 4:
-------

   Am        Em        Am        Em
                                  _
   | | | |   | | | |   | | | |   | | | | |
e|---------|-2-0-3---|---------|-2-0-------|
B|-----0-1-|-0-------|-----0-1-|-0---------|
G|---2-----|-0-------|---2-----|-0---------|
D|---------|---------|---------|-----------|
A|-0-------|---------|-0-------|-----------|
E|---------|-0-------|---------|-0---------|
 Bright are the stars that shine.
                        Dark is the sky

   Am        Em        C         D
                                        _
   | | | |   | | | |   | | | |   | | | | |
e|---------|-2-0-3---|---3-0---|-----------|
B|-----0-1-|-0-------|---1---1-|-0---------|
G|---2-----|-0-------|---0-----|-2-2-------|
D|---------|---------|---------|-0-----2-0-|
A|-0-------|---------|-3-------|-----------|
E|---------|-0-------|---------|-2---------|
 I know this love of mine Will never die And I

   G         G

   | | | |   | | | |
e|---------|---------|
B|---0-----|---------|
G|---0-----|---------|
D|-2-0-----|---------|
A|---------|---------|
E|---3-----|---------|
 love her


Outro: (2 times)
-----

               Am                Em
      _   _             _   _             _   _
   | | | | |   | |   | | | | |   | |   | | | | |
e|-----------|---0-|-----------|---0-|-----------|
B|-----------|---1-|-----------|---0-|-----------|
G|-------0---|---2-|-------0---|---0-|-------0---|
D|-----0---4-|-2---|-----0---4-|-2---|-----0---4-|
A|-----------|-----|-----------|-----|-----------|
E|-----------|-----|-----------|-----|-----------|


:·..·:·..·:·..·:·..·:


And I Love Her - The Beatles (4/4)
----------------------------

Intro:
-----
               Am                    Em
      _   _                 _   _
   | | | | |   | | | |   | | | | |   | | | |
e|-----------|---0-----|-----------|---0-----|
B|-----------|---1-----|-----------|---0-----|
G|-------0---|---2-----|-------0---|---0-----|
D|-----0---4-|-2-------|-----0---4-|-2-------|
A|-----------|---------|-----------|---------|
E|-----------|---------|-----------|---------|

      _   _
   | | | | |
e|-----------|
B|-----------|
G|-------0---|
D|-----0---4-|
A|-----------|
E|-----------|


Verse 1:
-------

 Am       Em
I give her all my love
 Am        Em
That's all I do
 Am        Em
And if you saw my love
 C             D
You'd love her too
  G          '
I love her


Verse 2:
-------

She gives me everything
And tenderly
The kiss my lover brings-s
She brings to me
And I love her


Bridge:
------

Em          D
A love like ours
Em          Dm7
Could never die
Em          Dm7
As long as I
D           D    '
Have you near me


Verse 3:
-------

Am          Em
Bright are the stars that shine
Am          Em
Dark is the sky
Am          Em
I know this love of mine
C           D
Will never die
       G         '
And I love her


Solo: 
----

Am, Em, Am, Em, Am, Em, C, D, G, '


Verse 4:
-------

Bright are the stars that shine
Dark is the sky
I know this love of mine
Will never die
And I love her


Outro:
-----

Am, Em, Am, Em, Am, Em, Am, Em
Previous Song  Previous | Next  Next Song