+
- 
My Guitar Songbook
Good Evening  |  Sign In 
Who'll Stop The Rain (Fingerstyle)  

Info  |  Tutorial  |  Tab  |  Rate It  |  Share
Who'll Stop The Rain (Fingerstyle) - Helmut Bickel
 Arranged By: Helmut Bickel
 Audio Src: Tutorial
 Rated: ( 1 )  | 

Standard Tuning - 4/4 Time

Intro:
-----

   G                                 Em
    _   _   _   _     _   _   _       _   _   _   _
   | | | | | | | |   | | | | | | |   | | | | | | | |
e|-----------------|---------------|-----------------|
B|-------0-------0-|-------0-------|-------0-------0-|
G|---0-------0-----|---0-------0---|---0-------0-----|
D|-----0-------0---|-----0---------|-----2-------2---|
A|-----------------|---------------|-----------------|
E|-3-------3-------|-3-------3---2-|-0-------0-------|

   Em              G
    _   _   _       _   _   _   _     _   _   _
   | | | | | | |   | | | | | | | |   | | | | | | |
e|---------------|-----------------|---------------|
B|-------0-------|-------0-------0-|-------0-------|
G|---0-------0---|---0-------0-----|---0-------0---|
D|-----2---------|-----0-------0---|-----0-------0-|
A|---------------|-----------------|---------------|
E|-0-------0---2-|-3-------3-------|-3-------3-----|


Verse 1 & 2:
-----------

   G                               C             G
      _   _   _     _   _   _         _   _         _   _
   | | | | | | |   | | | | | | |   | | | | | |   | | | | | |
e|---------------|---------------|-------------|-------------|
B|-0-3-3---3---3-|---0-------0---|-------------|---------0---|
G|-0-0-0---0---0-|-------0-------|-0---0-0-0---|-0---0-------|
D|---0-------0---|-----0-------0-|---2-------2-|---0-------0-|
A|---------------|---------------|-3-----3-----|-------------|
E|-3-----3-------|-3-------3-----|-------------|-3-----3-----|
1. Long as I remember the         rain been comin' down
2. I went down Virginia seeking   shelter from the storm

   G                               C             G
      _   _   _     _   _   _         _   _         _   _
   | | | | | | |   | | | | | | |   | | | | | |   | | | | | |
e|---------------|---------------|-------------|-------------|
B|-0-3-3---3---3-|---0-------0---|---------0---|-0-------0---|
G|-0-0-0---0---0-|-------0-------|-0---0-0-----|-----0-------|
D|---0-------0---|-----0-------0-|---2-------2-|---0-------0-|
A|---------------|---------------|-3-----3-----|-------------|
E|-3-----3-------|-3-------3-----|-------------|-3-----3-----|
1. Clouds of mystery pourin'      confusion on the ground
2. Caught up in the fable       I watched the tower grow

   C             G             C            G
      _   _         _   _         _   _         _   _
   | | | | | |   | | | | | |   | | | | | |   | | | | | |
e|-3---3-3-0---|-------------|-3---3-3-0---|-------------|
B|-1-----------|-3-------3---|-1-----------|-3-------0---|
G|-------------|-----0-------|-------------|-----0-------|
D|---2-------2-|---0-------0-|---2-------2-|---0-------0-|
A|-3-----3-----|-------------|-3-----3-----|-------------|
E|-------------|-3-----3-----|-------------|-3-----3-----|
1. Good men through the ages  Tryin' to find the sun
2. Five-year plans and new deals wrapped in golden chains

   C             D             Em
      _   _         _   _
   | | | | | |   | | | | | |   | | | |   | | | |
e|-3---3-3-0---|-------------|-0-0-0-0-|---------|
B|-1-----------|-3---3-3-0---|-0-0---0-|---------|
G|-------------|-2---2-2-----|-0-0---0-|---------|
D|---2-------2-|---0-------0-|-2-2---2-|---------|
A|-3-----3-----|-------------|-2-2---2-|---------|
E|-------------|-2-----2-----|-0-0---0-|---------|
1. And I wonder, still I wonder   Who'll stop the rain
2. And I wonder, still I wonder   Who'll stop the rain

   G
    _   _   _
   | | | | | | |
e|---------------|
B|-------0-------|
G|---0-------0---|
D|-----0-------0-|
A|---------------|
E|-3-------3-----|
1. ...      to 2nd Verse

   G
    _   _   _   _     _   _   _
   | | | | | | | |   | | | | | | |
e|-----------------|---------------|
B|-------0-------0-|-------0-------|
G|---0-------0-----|---0-------0---|
D|-----0-------0---|-----0-------0-|
A|-----------------|---------------|
E|-3-------3-------|-3-------3-----|
2. ...                          to Bridge


Bridge:
------

   C G D              Am C Em          D   G

   | | | |   | | | |   | | | |   | | | |   | | | |
e|-0-3-2---|---------|-0-0-0---|-------2-|-3-------|
B|-1-0-3---|---------|-1-1-0---|-------3-|-0-------|
G|-0-0-2---|---------|-2-0-0---|-------2-|-0-------|
D|-2-0-0---|---------|-2-2-2---|-------0-|-0-------|
A|-3-2-----|---------|-0-3-2---|---------|-2-------|
E|---3-----|---------|-----0---|---------|-3-------|

   G
    _   _   _
   | | | | | | |
e|---------------|
B|-------0-------|
G|---0-------0---|
D|-----0-------0-|
A|---------------|
E|-3-------3-----|


Verse 3:
-------

   G                               C             G
      _   _   _     _   _   _         _   _         _   _
   | | | | | | |   | | | | | | |   | | | | | |   | | | | | |
e|---------------|---------------|-------------|-------------|
B|-0-3-3---3---3-|---0-------0---|-------------|---------0---|
G|-0-0-0---0---0-|-------0-------|-0---0-0-0---|-0---0-------|
D|---0-------0---|-----0-------0-|---2-------2-|---0-------0-|
A|---------------|---------------|-3-----3-----|-------------|
E|-3-----3-------|-3-------3-----|-------------|-3-----3-----|
 Heard the singers playin',     how we cheered for more

                 Bm            C             G
      _   _         _   _         _   _            _
   | | | | | |   | | | | | |   | | | | | |   |  | | | |
e|-------------|-------------|-------------|---s7-5-3---|
B|-0-3-3---3---|-3-------3---|---------0---|-0----------|
G|-0-3-0---0---|-4---4-------|-0---0-0-----|---s7-5-4---|
D|---0-------0-|---4-------4-|---2-------2-|------------|
A|-------------|-2-----2-----|-3-----3-----|------------|
E|-3-----3-----|-------------|-------------|-3----------|
 The crowd had rushed together, just tryin to keep warm

    C           G              C             G
      _   _         _   _         _   _            _
   | | | | | |   | | | | | |   | | | | | |   |  | | | |
e|-3---3-3-0---|-------------|-3---3-3-0---|---s7-5-3---|
B|-1-----------|-3-------0---|-1-----------|-3----------|
G|-------------|-----0-------|-------------|---s7-5-4---|
D|---2-------2-|---0-------0-|---2-------2-|------------|
A|-3-----3-----|-------------|-3-----3-----|------------|
E|-------------|-3-----3-----|-------------|-3----------|
 Still the rain kept pourin'   fallin on my ears

   C            D              Em
      _   _         _   _           _
   | | | | | |   | | | | | |   | | | | |   | | | | 
e|-3---3-3-0---|-------------|-0-0-0-0---|---------|
B|-1-----------|-3---3-3-0---|-0-0---0---|---------|
G|-------------|-2---2-2-----|-0-0---0---|---------|
D|---2-------2-|---0-------0-|-2-2---2---|---------|
A|-3-----3-----|-------------|-2-2---2---|---------|
E|-------------|-2-----2-----|-0-0---0---|---------|
 And I wonder, still I wonder  Who'll stop the rain...


Outro:  (fade out)
-----

   G                                 Em
    _   _   _   _     _   _   _       _   _   _   _
   | | | | | | | |   | | | | | | |   | | | | | | | |
e|-----------------|---------------|-----------------|
B|-------0-------0-|-------0-------|-------0-------0-|
G|---0-------0-----|---0-------0---|---0-------0-----|
D|-----0-------0---|-----0---------|-----2-------2---|
A|-----------------|---------------|-----------------|
E|-3-------3-------|-3-------3---2-|-0-------0-------|

   Em              G
    _   _   _       _   _   _   _     _   _   _
   | | | | | | |   | | | | | | | |   | | | | | | |
e|---------------|-----------------|---------------|
B|-------0-------|-------0-------0-|-------0-------|
G|---0-------0---|---0-------0-----|---0-------0---|
D|-----2---------|-----0-------0---|-----0-------0-|
A|---------------|-----------------|---------------|
E|-0-------0---2-|-3-------3-------|-3-------3-----|
Top
 
Previous Song  Previous |