+
- 
My Guitar Songbook
Good Evening  |  Sign In 
What's Up 

What's Up - 4 Non Blondes
  Artist: 4 Non Blondes
 Audio Src: willc's Music Library
 Rated: ( 1 )  | 

Standard Tuning - 4/4 Time

Intro:
-----

A, Bm, D, A

                       A           Bm
        _ _   _ _ _           _       _ _   _   _ _
   | | | | | | | | |   | | | | |   | | | | | | | | |
e|-------0-0---0---0-|-----------|-------------------|
B|-------------------|-----------|-------------------|
G|-------------------|-2-----2-2-|-------2-------2---|
D|-------------------|-----------|-4-2h4---4-2h4---4-|
A|-------------------|-----------|-------------------|
E|-------------------|-----------|-------------------|

   D                 A
      _ _   _ _ _       _ _   _
   | | | | | | | |   | | | | | |
e|-----------------|-------------|
B|---------3---1-2-|-------------|
G|-2-----2---2-----|-2-----------|
D|-----------------|-----0h2-0h2-|
A|-----------------|-------------|
E|-----------------|-------------|


Verse 1: (lyrics below)
-------

   A           Bm
          _       _ _   _   _ _
   | | | | |   | | | | | | | | |
e|-----------|-------------------|
B|-----------|-------------------|
G|-2-----2-2-|-------2-------2---|
D|-----------|-4-2h4---4-2h4---4-|
A|-----------|-------------------|
E|-----------|-------------------|

   D               A
      _   _   _       _ _   _
   | | | | | | |   | | | | | |
e|---------------|-------------|
B|---------------|-------------|
G|-2---2-----2---|-2-----------|
D|-------2h4---4-|-----0h2-0h2-|
A|---------------|-------------|
E|---------------|-------------|

   A           Bm                  D
          _       _ _   _   _ _       _   _   _
   | | | | |   | | | | | | | | |   | | | | | | |
e|-----------|-------------------|---------------|
B|-----------|-------------------|---------------|
G|-2-----2-2-|-------2-------2---|-2---2-----2---|
D|-----------|-4-2h4---4-2h4---4-|-------2h4---4-|
A|-----------|-------------------|---------------|
E|-----------|-------------------|---------------|

   A
      _ _   _
   | | | | | |   | | | |
e|-------------|---------|
B|-------------|---------|
G|-2-----------|-2-------|
D|-----0h2-0h2-|-2-------|
A|-------------|-0-------|
E|-------------|---------|
                 to Pre-Chorus


Lyrics and Chords:
-----------------

Verse 1:
-------

A
Twenty-five years and my life is still
Bm
Trying to get up that great big hill
   D                A
Of hope for a destination
A
I realized quickly when I knew I should
         Bm
That the world was made up of this brotherhood
   D                       A
Of man, for whatever that means
 

Pre-Chorus:
----------

         A
And so I cry sometimes when I'm lying in bed
        Bm
Just to get it all out, what's in my head
      D                         A
and I - I am feeling a little peculiar
         A
And so I wake in the morning and I step outside
      Bm
and I take a deep breath and I get real high and
  D                                            A
I scream at the top of my lungs "What's going on?"
 

Chorus:
------

            A           Bm
And I said "Heyeyeyeyey Heyeyey"
        D                 A
I said "Hey, what's going on?"
            A           Bm
And I said "Heyeyeyeyey Heyeyey"
        D                 A
I said "Hey, what's going on?"
 

Interlude:
---------

   A           Bm
          _       _ _   _   _ _
   | | | | |   | | | | | | | | |
e|-----------|-------------------|
B|-----------|-------------------|
G|-2-----2-2-|-------2-------2---|
D|-----------|-4-2h4---4-2h4---4-|
A|-----------|-------------------|
E|-----------|-------------------|
  Ooh,         Ooh

   D               A
      _   _   _       _ _   _
   | | | | | | |   | | | | | |
e|---------------|-------------|
B|---------------|-------------|
G|-2---2-----2---|-2-----------|
D|-------2h4---4-|-----0h2-0h2-|
A|---------------|-------------|
E|---------------|-------------|
  Ooh,             Ooh

   A           Bm                  D
          _       _ _   _   _ _       _   _   _
   | | | | |   | | | | | | | | |   | | | | | | |
e|-----------|-------------------|---------------|
B|-----------|-------------------|---------------|
G|-2-----2-2-|-------2-------2---|-2---2-----2---|
D|-----------|-4-2h4---4-2h4---4-|-------2h4---4-|
A|-----------|-------------------|---------------|
E|-----------|-------------------|---------------|
  Ooh,             Ooh              Ooh

   A
      _ _   _
   | | | | | |   | | | |
e|-------------|---------|
B|-------------|---------|
G|-2-----------|-2-------|
D|-----0h2-0h2-|-2-------|
A|-------------|-0-------|
E|-------------|---------|
  Ooh,


Verse 2:
-------

And I try, oh my God do I try
I try all the time, in this institution
And I pray, oh my god do I pray
I pray every single day
For a revolution
 

Pre-Chorus:
----------

And so I cry sometimes when I'm lying in bed
Just to get it all out, what's in my head
and I - I am feeling a little peculiar
And so I wake in the morning and I step outside
and I take a deep breath and I get real high and
I scream at the top of my lungs "What's going on?"
 

Chorus:
------

And I said "Heyeyeyeyey Heyeyey"
I said "Hey, what's going on?"
And I said "Heyeyeyeyey Heyeyey"
I said "Hey, what's going on?"
 

Chorus:
------

And I said "Heyeyeyeyey Heyeyey"
I said "Hey, what's going on?"
And I said "Heyeyeyeyey Heyeyey"
I said "Hey, what's going on?"
 

Interlude:
---------

                       A           Bm
        _ _   _ _ _           _       _ _   _   _ _
   | | | | | | | | |   | | | | |   | | | | | | | | |
e|-------0-0---0---0-|-----------|-------------------|
B|-------------------|-----------|-------------------|
G|-------------------|-2-----2-2-|-------2-------2---|
D|-------------------|-----------|-4-2h4---4-2h4---4-|
A|-------------------|-----------|-------------------|
E|-------------------|-----------|-------------------|
                      Ooh,        Ooh Ooh
                      
   D                 A
      _ _   _ _ _       _ _   _
   | | | | | | | |   | | | | | |
e|-----------------|-------------|
B|---------3---1-2-|-------------|
G|-2-----2---2-----|-2-----------|
D|-----------------|-----0h2-0h2-|
A|-----------------|-------------|
E|-----------------|-------------|
   Ooh,             Ooh Ooh
 

Outro:
-----

Twenty-five years and my life is still
Trying to get up that great big hill of hope
For a destination
Top
 
Previous Song  Previous | Next  Next Song