+
- 
My Guitar Songbook
Good Evening  |  Sign In 
Unchained Melody (Fingerstyle) 

Unchained Melody (Fingerstyle) - Helmut Bickel
 Artist: Helmut Bickel
 Audio Src: Tutorial
 Rated: ( 1 )  | 

Capo 2nd Fret - 4/4 Time

Verse 1:
-------
 
   C         Am        Fmaj7     G
    _   _     _   _     _   _     _   _
   | | | |   | | | |   | | | |   | | | |
e|---------|---------|-0-------|-------0-|
B|-1-----3-|-1-----3-|-1-1---1-|---0-3---|
G|-0---0---|-2---2---|-----2---|-0-------|
D|---2-----|---2-----|-3-------|-0-------|
A|-3-------|-0-------|---------|---------|
E|---------|---------|---------|-3-------|
1. Oh, my love, my darling I've hungered
                                  for your

   C         Am        G         G
    _   _     _   _     _   _     _   _
   | | | |   | | | |   | | | |   | | | |
e|---------|---------|---------|---------|
B|-1-----3-|-1-------|-------0-|---------|
G|-0---0---|-2-------|-0---0---|---------|
D|---2-----|-----2-3-|---0-----|---------|
A|-3-------|-0-------|---------|-----0-2-|
E|---------|---------|-3-------|-3-------|
1. Love for love, lonely time


Verse 2:
-------

   C         Am        Fmaj7     G
    _   _     _   _     _   _     _   _
   | | | |   | | | |   | | | |   | | | |
e|---------|---------|-0-------|-------0-|
B|-1-----3-|-1-----3-|-1-1---1-|---0-3---|
G|-0---0---|-2---2---|-----2---|-0-------|
D|---2-----|---2-----|-3-------|-0-------|
A|-3-------|-0-------|---------|---------|
E|---------|---------|---------|-3-------|
2. Time goes by so slowly and time can do so

   C         Am        Em        G
    _   _     _   _     _   _     _   _
   | | | |   | | | |   | | | |   | | | |
e|---------|---------|-3-------|-------1-|
B|-1-----3-|-1-----1-|-0-----0-|---------|
G|-0---0---|-2---2---|-----0---|---------|
D|---2-----|---2-----|---2-----|---------|
A|-3-------|-0-------|---------|---------|
E|---------|---------|-0-------|-3-------|
2. Much are you still mine              I


Verse 2 (B Section)
-------

   C         G         Am        Em
    _   _     _   _     _   _     _   _
   | | | |   | | | |   | | | |   | | | |
e|-0-------|---------|---------|---------|
B|-1---1---|-----3---|-1-------|-----0---|
G|-------0-|---0---0-|---2-----|---------|
D|-----2---|---------|---2-2---|---2---2-|
A|-3-----3-|-2-------|-0---0---|---------|
E|---------|---------|---------|-0-------|
2. Need your love  I need your love   God

   F         G         C         C
    _   _     _   _     _   _     _   _
   | | | |   | | | |   | | | |   | | | |
e|---------|---------|---------|---------|
B|---------|-----3---|-1-------|-------1-|
G|-2-------|---0---0-|---0---0-|-----0---|
D|-----3-0-|---------|-----2---|---2-----|
A|---------|-----2---|-3-------|-3-------|
E|-1-------|-3-------|---------|---------|
2. Speed your love to me


Chorus:
------

   F         G           F           Eb
    _   _     _   _ _     _   _ _     _   _
   | | | |   | | | | |   | | | | |   | | | |
e|---------|-----------|-----------|---------|
B|-------1-|-0-----1-0-|-----------|---------|
G|---0-2---|-----0-----|-2---2---2-|-0-------|
D|-3---3---|---0-------|---3---3---|-1-------|
A|---------|-----------|-----------|---------|
E|-1-------|-3---------|-1---------|---------|
 Lonely rivers flow to the sea to the sea

   F         G           C         C
    _   _     _   _ _     _   _     _   _
   | | | |   | | | | |   | | | |   | | | |
e|---------|-------0---|-0-------|---------|
B|-------1-|-3-------3-|-1-1-----|-------1-|
G|---0-2---|-----0-----|-0---0---|-----0---|
D|-3---3---|---0-------|-------2-|---2-----|
A|---------|-----------|-3-------|-3-------|
E|-1-------|-3---------|---------|---------|
 To  the open  arms  of the sea

   F         G           F           Eb
    _   _     _   _ _     _   _ _     _   _
   | | | |   | | | | |   | | | | |   | | | |
e|---------|-----------|-----------|---------|
B|-------1-|-0-----1-0-|-----------|---------|
G|---0-2---|-----0-----|-2---2---2-|-0-------|
D|-3---3---|---0-------|---3---3---|-1-------|
A|---------|-----------|-----------|---------|
E|-1-------|-3---------|-1---------|---------|
 Lonely rivers sigh wait for me wait for me

   F         G           C         C
    _   _     _   _ _     _   _     _   _
   | | | |   | | | | |   | | | |   | | | |
e|---------|-------0---|---------|---------|
B|-------1-|-3-------3-|-1-------|-1-------|
G|---0-2---|-----0-----|---0---0-|---------|
D|-3---3---|---0-------|-----2---|---------|
A|---------|-----------|-3-------|-3-------|
E|-1-------|-3---------|---------|---------|
 I'll be coming home wait for me


Verse 3:
-------

Oh, my love, my darling 
I've hungered for your love 
For love, lonely time


Verse 4:
-------
 
And time goes by so slowly  
And time can do so much 
Are you still mine? 

       
Verse 2 (B Section) / Outro:
---------------------------

   C         G         Am        Em
    _   _     _   _     _   _     _   _
   | | | |   | | | |   | | | |   | | | |
e|-0-------|---------|---------|---------|
B|-1---1---|-----3---|-1-------|-----0---|
G|-------0-|---0---0-|---2-----|---------|
D|-----2---|---------|---2-2---|---2---2-|
A|-3-----3-|-2-------|-0---0---|---------|
E|---------|---------|---------|-0-------|
 I Need your love  I need your love   God

   F         G         C
    _   _     _   _     _   _     _   _
   | | | |   | | | |   | | | |   | | | |
e|---------|---------|---------|---------|
B|---------|-----3---|-1-------|-1-------|
G|-2-------|---0---0-|---0---0-|---------|
D|-----3-0-|---------|-----2---|---------|
A|---------|-----2---|-3-------|-3-------|
E|-1-------|-3-------|---------|---------|
 Speed your love to me
 
Previous Song  Previous | Next  Next Song