+
- 
My Guitar Songbook
Good Evening  |  Sign In 
Yesterday (Fingerstyle) 

Yesterday (Fingerstyle) - LonelyPicker
 Artist: LonelyPicker
 Audio Src: Tutorial
 Rated: ( 1 )  | 

Standard Tuning - 4/4 Time

Intro:
-----

   G                 G
    _   _   _   _     _   _   _   _ 
   | | | | | | | |   | | | | | | | |
e|---3-3-3---3-3-3-|---3-3-3---3-3-3-|
B|---3-3-3---3-3-3-|---3-3-3---3-3-3-|
G|---0-0-0---0-0-0-|---0-0-0---0-0-0-|
D|-----------------|-----------------|
A|-----------------|-----------------|
E|-3-------3-------|-3-------3-------|

                 - OR -
   G
    _   _   _   _     _   _   _   _
   | | | | | | | |   | | | | | | | |
e|-----------------|-----------------|
B|-----0-0---------|-----0-0---------|
G|-----0-0-----0---|-----0-0-----0---|
D|---0-------0---0-|---0-------0---0-|
A|-----------------|-----------------|
E|-3-------3-------|-3-------3-------|

Verse:
-----

   G                B7                 Em        D
    _   _   _   _     _   _   _   _     _   _   _   _
   | | | | | | | |   | | | | | | | |   | | | | | | | |
e|-----------------|-----------0-2-3-|-2---0-0---------|
B|-0---------------|-----0-2-4-------|-0-----------0---|
G|-2-0-0-------0---|-----2-----------|---0-------0-----|
D|-0-----0---0---0-|---1-------------|---------2-----0-|
A|-----------------|-2-------2-------|-----------------|
E|-3-------3-------|-----------------|-0---------------|
1. Yesterday All my troubles seemed so far away

   C       G         C/G       D/F#    Em      A
    _   _   _   _     _   _   _   _     _   _   _   _
   | | | | | | | |   | | | | | | | |   | | | | | | | |
e|-----0-0---------|-----------------|-----------------|
B|-----1---3-1-0---|-1---0-0---------|-----0---------0-|
G|---0-----------2-|-0---0-0-----2---|-0-----2-----2---|
D|-----------------|---0-------0---0-|---2-------2-----|
A|-3-------2-------|-----------------|---------0-------|
E|-----------------|-3-------3---2---|-0---------------|
1. Now it looks as though they're here to stay
                                  Oh, I believe in yester-
   C       G
    _   _   _   _
   | | | | | | | |
e|-----------------|
B|-------0---------|
G|-0---0-------0---|
D|-2-2-------0---0-|
A|-3---------------|
E|---------3-------|
1. day

Chorus:
------

   B7                Em  D   C         D
    _   _   _   _     _   _   _   _     _   _   _   _
   | | | | | | | |   | | | | | | | |   | | | | | | | |
e|-----------------|-0---2---3---2-0-|-2-----0-----0---|
B|-0-----0-0-----0-|---0-----1-------|-3---3---3-----0-|
G|-----2-------2---|-------2-0-0-----|-2-2-------2-----|
D|---1-------1-----|-2---0-----------|-0-------0-------|
A|---------2-------|---------3-------|-----------------|
E|-2---------------|-----------------|-----------------|
  Why she had to go, I don't know, she wouldn't

   G
    _   _   _   _
   | | | | | | | |
e|-----------------|
B|---------------0-|
G|-----0-------0---|
D|---0---0---0-----|
A|-----------------|
E|-3-------3-------|
 say

   B7                Em  D   C         D  
    _   _   _   _     _   _   _   _     _   _   _   _
   | | | | | | | |   | | | | | | | |   | | | | | | | |
e|-----------------|-0---2---3---2-0-|-2-----0-----2---|
B|-0-----0-0-----0-|---0-----1-------|-3---3---3-----3-|
G|-----2-------2---|-------2-0-0-----|-2-2-------2-----|
D|---1-------1-----|-2---0-----------|-0-------0-------|
A|---------2-------|---------3-------|-----------------|
E|-2---------------|-----------------|-----------------|
  I said something wrong, now I long for yester-

   G
    _   _   _   _
   | | | | | | | |
e|-3---------------|
B|-3---3---1---0---|
G|-----0---0---0---|
D|---0---0---0---0-|
A|-----------------|
E|-3-------3-------|
 day

Outro:
-----

   G       A         C     G
    _   _   _   _     _   _   _   _
   | | | | | | | |   | | | | | | | |
e|-----------------|-----------------|
B|-----0-----------|-----0-0---------|
G|-0-----2-----2---|-0-----0---------|
D|---0-------2---2-|-2-2-------------|
A|---------0-------|-3---------------|
E|-3---------------|-------3---------|
 Mm mm mm mm mm mm mm


*:·..·:*¨¨*:·..·:*¨¨*

Lyrics and Chords:
-----------------

Verse 1:
-------

G     [F#m   B7           ]          Em    [ D
Yesterday All my troubles seemed so far away
C  ]   D7                      G
Now it looks as though they're here to stay
   Em   A       [ C     G ]
Oh, I believe in yesterday

Verse 2:
-------

Suddenly I'm not half the man I used to be
There's a shadow hangin' over me
Oh, yesterday came suddenly

Chorus:
------

B7     [Em   D  C       ]   D7
Why she had to go, I don't know, 
             G
she wouldn't say
B7     [Em   D  C       ]   D7
I said something wrong, now I long 
          [G  D C G]
for yesterday

Verse 3:
-------

Yesterday love was such an easy game to play
Now I need a place to hide away
Oh, I believe in yesterday

Chorus:
------

Why she had to go, I don't know, 
she wouldn't say
I said something wrong, now I long 
for yesterday

Verse 4:
-------

Yesterday love was such an easy game to play
Now I need a place to hide away
Oh, I believe in yesterday

Outro:
-----

Mm mm mm mm mm mm mm
 
Previous Song  Previous | Next  Next Song