+
- 
My Guitar Songbook
Good Evening  |  Sign In 
Imagine (Fingerstyle)  

Info  |  Tutorial  |  Tab  |  Rate It  |  Share
Imagine (Fingerstyle) - Nicola Mandorino
 Arranged By: Nicola Mandorino
 Audio Src: Tutorial
 Rated: ( 1 )  | 

Standard Tuning - 4/4 Time

Intro:
-----

    C          Cmaj7    Fmaj7
    _   _ _   _   _     _   _   _   _ _
   | | | | | | | | |   | | | | | | | | |
e|-------------------|-------------------|
B|---------------0-0-|-0---------------0-|
G|-----0---0-----0---|-2-2---------2h3---|
D|---2---2-----2-----|-3-----3---3-------|
A|-3---------3-------|-3-------3---------|
E|-------------------|-------------------|

   C          Cmaj7    Fmaj7
    _   _ _   _   _         _   _ _
   | | | | | | | | |   | | | | | | |
e|-------------------|---------------|
B|-3-------------0-0-|-------------0-|
G|-0---0---0-----0-0-|-2-------2h3---|
D|-2-2---2-----2-----|-3-3---3-------|
A|-3---------3-------|-3---3---------|
E|-------------------|---------------|

Verse:
-----

   C          Cmaj7    Fmaj7
    _   _ _   _   _     _   _   _   _ _
   | | | | | | | | |   | | | | | | | | |
e|-------------------|-------------------|
B|---------------0-0-|-0---------------0-|
G|-----0---0-----0---|-2-2---------2h3---|
D|---2---2-----2-----|-3-----3---3-------|
A|-3---------3-------|-3-------3---------|
E|-------------------|-------------------|
  Imagine there's no Heaven

   C          Cmaj7    Fmaj7
    _   _ _   _   _         _   _ _
   | | | | | | | | |   | | | | | | |
e|-------------------|---------------|
B|-3-------------0-0-|-------------0-|
G|-0---0---0-----0-0-|-2-------2h3---|
D|-2-2---2-----2-----|-3-3---3-------|
A|-3---------3-------|-3---3---------|
E|-------------------|---------------|
  It's easy if you    try

   C          Cmaj7    Fmaj7
    _   _ _   _   _     _   _   _   _ _
   | | | | | | | | |   | | | | | | | | |
e|-------------------|-------------------|
B|---------------0-0-|-0---------------0-|
G|-----0--0------0-0-|-2-2---------2h3---|
D|---2---2-----2-----|-3-----3---3-------|
A|-3---------3-------|-3-------3---------|
E|-------------------|-------------------|
  No Hell           below us

   C          Cmaj7    Fmaj7
    _   _ _   _   _         _   _ _
   | | | | | | | | |   | | | | | | |
e|-------------------|---------------|
B|-3-------------0-0-|-------------0-|
G|-0---0---0-----0-0-|-2-------2h3---|
D|-2-2---2-----2-----|-3-3---3-------|
A|-3---------3-------|-3---3---------|
E|-------------------|---------------|
   Above us only      sky

Chorus:
------

   F         C         Dm
    _   _ _   _   _     _ _   _   _   _
   | | | | | | | | |   | | | | | | | | |
e|---------------0-0-|-------------------|
B|-----1---1-----1---|-3p1-----------1---|
G|---2---2-----0-----|-2---2-------2---2-|
D|-3---------2-------|-0-------0---------|
A|-------------------|-----------3-------|
E|-------------------|-------------------|
  Imagine all the   people
              
   G
    _   _   _   _     _     _   _ _
   | | | | | | | |   | | | | | | | |
e|-----------------|-------0-3---0---|
B|-0-0-----0---1-3-|-------0-------3-|
G|-0-0-----0---0-0-|-----0-0---------|
D|-0-----0---0-----|---0-------------|
A|-----------------|-----------------|
E|-3---3-----------|-3-----3---------|
  livin'   for   today   Ah, ah, ah-ah

Bridge:
-------

  F        G         C       E   E7
    _   _   _   _     _   _   _   _
   | | | | | | | |   | | | | | | | |
e|-----------------|---------0-------|
B|-1-----1-0-----0-|-1-1-----0---3---|
G|-2---2---0---2---|-0-----0-1---1---|
D|-3-3-----0-0-----|-2---2-----2---2-|
A|-----------------|-3---------------|
E|---------3-------|---------0-------|
  You may say I'm a dreamer   

   F       G         C       E   E7
    _   _   _   _     _   _   _   _
   | | | | | | | |   | | | | | | | |
e|-----------------|---------0-------|
B|-1-----1-0-------|-----1---0---3---|
G|-2---2---0---2-0-|---0---0-1---1---|
D|-3-3-----0-0-----|-----------2---2-|
A|-----------------|-3---------------|
E|-1-------3-------|---------0-------|
  But I'm not the only one

   F       G         C       E   E7
    _   _   _   _     _   _   _   _
   | | | | | | | |   | | | | | | | |
e|-----------------|---------0-------|
B|-1-----1-0-----0-|-1-1-----0---3---|
G|-2---2---0---2---|-0-----0-1---1---|
D|-3-3-----0-0-----|-2---2-----2---2-|
A|-----------------|-3---------------|
E|---------3-------|---------0-------|
I hope some day   you'll join us

   F       G         C
    _   _   _   _     _ _   _
   | | | | | | | |   | | | | | | |
e|-----------------|-0-------------|
B|-1-----1-3---1-3-|---3-1-----1---|
G|-2---2---0-------|-------0---0---|
D|-3-3-----0-0-----|---------2-2---|
A|-----------------|-3---------3---|
E|-1-------3-------|---------------|
 And the world    will be one


*:·..·:*¨¨*:·..·:*¨¨*:·..·:*¨¨*


Lyrics and Chords
-----------------

From Rob Smith:
https://www.youtube.com/watch?v=K-hGUa3Nc40

Verse 1:
-------

[C          Cmaj7]  Fmaj7
Imagine there's no Heaven
[C          Cmaj7]  Fmaj7
It's easy if you try
[C          Cmaj7]  Fmaj7
No Hell below us
[C          Cmaj7]  Fmaj7
Above us only sky

Chorus:
------

[F/C     Am ]  [Dm   C]
Imagine all the people 
[G         G7]
livin' for today Ah, ah, ah-ah

Verse 2:
-------

[C          Cmaj7]  Fmaj7
Imagine there's no countries
[C          Cmaj7]  Fmaj7
It isn't hard to do
[C          Cmaj7]  Fmaj7
Nothin' to kill or die for
[C          Cmaj7]  Fmaj7
And no religion, too

Chorus:
------

[F/C     Am ]  [Dm   C]
Imagine all the people 
[G         G7]
livin' for today Ah, ah, ah-ah

Bridge:
------

[F      G  ]    [C  Cmaj7 E  E7 ]
You may say I'm a dreamer
[F      G  ]    [C  Cmaj7 E  E7 ]
But I'm not the only one
[F      G  ]    [C  Cmaj7 E  E7 ]
I hope some day you'll join us
[F       G ]     C
And the world will be one

Verse 3:
-------

[C          Cmaj7]  Fmaj7
Imagine no possessions
[C          Cmaj7]  Fmaj7
I wonder if you can
[C          Cmaj7]  Fmaj7
No need for greed or hunger
[C          Cmaj7]  Fmaj7
A brotherhood of man

Chorus:
------

[F/C     Am ]  [Dm   C]
Imagine all the people 
[G         G7]
livin' for today Ah, ah, ah-ah

Bridge:
------

[F      G  ]    [C  Cmaj7 E  E7 ]
You may say I'm a dreamer
[F      G  ]    [C  Cmaj7 E  E7 ]
But I'm not the only one
[F      G  ]    [C  Cmaj7 E  E7 ]
I hope some day you'll join us
[F       G ]     C
And the world will be one
Top
 
Previous Song  Previous | Next  Next Song