+
- 
My Guitar Songbook
Good Morning  |  Sign In 
Here Comes the Sun

About  |  Tutorial  |  Tab (PDF)  |  Rate It  |  Share
Here Comes the Sun - The Beatles
 About this Song
 Artist3: The Beatles  | Video | Songs
  Audio file & Tab from willc  Bill Charrette | Tabs
 Rated: ( 1 ) | Stats

 

  Capo 7th Fret - 4/4 Time

Intro:
-----

   D                         G           A7
      _   _         _             _       _   _
   | | | | | |   | | | | |   | | | | |   | | | | | |
e|---2---0-2---|---2-0-----|-----0-----|---------0---|
B|---3-3-----3-|-------3-0-|---3---3-0-|-2-0-2-3-----|
G|---2---------|---------0-|-----------|-0-----------|
D|-X-----------|---------0-|-----------|-2-----------|
A|-------------|---------2-|-----------|-0-----------|
E|-------------|---------3-|-----------|-------------|

   D                         G         A7
      _   _ _       _
   | | | | | |   | | | | |   | | | |   | | | |
e|---2---0-2---|---2-0-----|-2-0-----|---------|
B|---3-3-----3-|-------3-0-|-----3-2-|(2)------|
G|---2---------|---------0-|-------0-|(0)------|
D|-0-----------|---------0-|-------2-|(2)------|
A|-------------|---------2-|-------0-|(0)------|
E|-------------|---------3-|---------|---------|


Chorus:
------

   D                     G           E7
      _                       _
   | | | | |   | | | |   | | | | |   | | | |
e|---2-0-2---|-2---0-2-|---2-0-2---|-0-------|
B|---3-----3-|---3-----|-0-------3-|-0-----3-|
G|---2-------|---------|-0---------|-1---1---|
D|-0---------|---------|-0---------|-0-------|
A|-----------|---------|-2---------|-2-------|
E|-----------|---------|-3---------|-0-------|
  Here comes the sun, do, dun, do, do ... 
              ... Here comes the sun, and I say
   D
            _   _ _ _   _ _ _     _ _ _   _ _ _ 
   | | | | |   | | | | | | | |   | | | | | | | |
e|---2-0-----|-----0-----0-----|-0-----0---------|
B|-------3---|---3-----3-----3-|-----3---3-2-0---|
G|---------2s|-4-----2-----0---|---2-----------2-|
D|-0---------|-----------------|-----------------|
A|-----------|-----------------|-----------------|
E|-----------|-----------------|-----------------|
  It's all right


Verses:
-------

   D                         G         A7
      _   _ _       _                   _   _
   | | | | | |   | | | | |   | | | |   | | | | | |
e|---2---0-2---|---2-0-----|---0-----|---------0---|
B|---3-3-----3-|-------3-0-|-3---3-0-|-2-0-2-3-----|
G|---2---------|---------0-|---------|-0-----------|
D|-0-----------|---------0-|---------|-2-----------|
A|-------------|---------2-|---------|-0-----------|
E|-------------|---------3-|---------|-------------|
 Little darling, it's been a long cold lonely winter

   D                         G         A7
      _   _ _       _
   | | | | | |   | | | | |   | | | |   | | | |
e|---2---0-2---|---2-0-----|-2-0-----|---------|
B|---3-3-----3-|-------3-0-|-----3-2-|(2)------|
G|---2---------|---------0-|-------0-|(0)------|
D|-0-----------|---------0-|-------2-|(2)------|
A|-------------|---------2-|-------0-|(0)------|
E|-------------|---------3-|---------|---------|
 Little darling, it feels like years since it's
                              ...  been here

Chorus
------

   D                     G           E7
      _                       _
   | | | | |   | | | |   | | | | |   | | | |
e|---2-0-2---|-2---0-2-|---2-0-2---|-0-------|
B|---3-----3-|---3-----|-0-------3-|-0-----3-|
G|---2-------|---------|-0---------|-1---1---|
D|-0---------|---------|-0---------|-0-------|
A|-----------|---------|-2---------|-2-------|
E|-----------|---------|-3---------|-0-------|

   D
          _     _ _ _   _ _ _     _ _ _   _ _ _
   | | | | |   | | | | | | | |   | | | | | | | |
e|---2-0-----|-----0-----0-----|-0-----0---------|
B|-------3---|---3-----3-----3-|-----3---3-2-0---|
G|---------2s|-4-----2-----0---|---2-----------2-|
D|-0---------|-----------------|-----------------|
A|-----------|-----------------|-----------------|
E|-----------|-----------------|-----------------|

               A7
      _           _ _   
   | | | | |   | | | | | |
e|-2-2---0-2-|-----------0-|
B|-3---3-----|-2-0-2-3-----|
G|-2---------|-0-----------|
D|-0---------|-2-----------|
A|-----------|-0-----------|
E|-----------|-------------|


Bridge:
------

  A7     F       C     G/B   G     D         A7
    _ _   _ _     _ _     _   _       _ _  
   | | | | | |   | | | | | | | |   | | | | |   |  |
e|-------------|-----------------|---2---0-2-|-0----|
B|-----------1-|-----------------|---3-3-----|-2----|
G|.--------2---|-----0-----0-----|---2-------|-0---.|
D|.----2-3-----|---2-----0-------|-0---------|-2---.|
A|-0h4---------|-3-----2-------2-|-----------|-0----|
E|-------------|-------------3---|-----------|------|
        Sun,   sun,   sun,  here it comes [**6 times ]

   A7            A7sus4        A7        A7
        _ _ _         _ _ _         _ _ _
   | | | | | |   | | | | | |   | | | | | |
e|-------------|-----------0-|---------0-3-|
B|-2-----0-2-3-|(3)----2-3-2-|(2)----3---2-|
G|-0---------0-|(0)--------0-|(0)--------0-|
D|-2---------2-|(2)--------2-|(2)--------2-|
A|-0---------0-|(0)--------0-|(0)--------0-|
E|-------------|-------------|-------------|


Chorus 3:
--------

   D                     G           E7
      _                       _
   | | | | |   | | | |   | | | | |   | | | |
e|---2-0-2---|-2---0-2-|---2-0-2---|-0-------|
B|---3-----3-|---3-----|-0-------3-|-0-----3-|
G|---2-------|---------|-0---------|-1---1---|
D|-0---------|---------|-0---------|-0-------|
A|-----------|---------|-2---------|-2-------|
E|-----------|---------|-3---------|-0-------|

   D
          _     _ _ _   _ _ _     _ _ _   _ _ _
   | | | | |   | | | | | | | |   | | | | | | | |
e|---2-0-----|-----0-----0-----|-0-----0---------|
B|-------3---|---3-----3-----3-|-----3---3-2-0---|
G|---------2s|-4-----2-----0---|---2-----------2-|
D|-0---------|-----------------|-----------------|
A|-----------|-----------------|-----------------|
E|-----------|-----------------|-----------------|

------

   D                     G           E7
      _                       _
   | | | | |   | | | |   | | | | |   | | | |
e|---2-0-2---|-2---0-2-|---2-0-2---|-0-------|
B|---3-----3-|---3-----|-0-------3-|-0-----3-|
G|---2-------|---------|-0---------|-1---1---|
D|-0---------|---------|-0---------|-0-------|
A|-----------|---------|-2---------|-2-------|
E|-----------|---------|-3---------|-0-------|

   D
          _     _ _ _   _ _ _     _ _ _   _ _ _
   | | | | |   | | | | | | | |   | | | | | | | |
e|---2-0-----|-----0-----0-----|-0-----0---------|
B|-------3---|---3-----3-----3-|-----3---3-2-0---|
G|---------2s|-4-----2-----0---|---2-----------2-|
D|-0---------|-----------------|-----------------|
A|-----------|-----------------|-----------------|
E|-----------|-----------------|-----------------|

   D
          _     _ _ _   _ _ _     _ _ _   _ _ _
   | | | | |   | | | | | | | |   | | | | | | | |
e|---2-0-----|-----0-----0-----|-0-----0---------|
B|-------3---|---3-----3-----3-|-----3---3-2-0---|
G|---------2s|-4-----2-----0---|---2-----------2-|
D|-0---------|-----------------|-----------------|
A|-----------|-----------------|-----------------|
E|-----------|-----------------|-----------------|
  It's all right


Outro:
-----

  A7     F       C     G/B   G     D
    _ _   _ _     _ _     _   _
   | | | | | |   | | | | | | | |   | | | |
e|-------------|-----------------|-2-------|
B|-----------1-|-----------------|-3-------|
G|---------2---|-----0-----0-----|-2-------|
D|-----2-3-----|---2-----0-------|-0-------|
A|-0h4---------|-3-----2-------2-|---------|
E|-------------|-------------3---|---------|


..................


Lyrics and Chords: (Capo 7th Fret)
------------------

D                   '    
Here comes the sun, do, dun, do, do
G                E7
Here comes the sun, and I say
D            '  '  '    A7
It's all right


Verse 1:
-------

D               '               G
Little darling, it's been a long cold
       A7
lonely winter
D               '               G
Little darling, it feels like years
                A7
since it's been here


Chorus:
------

D                   '    
Here comes the sun, do, dun, do, do
G                E7
Here comes the sun, and I say
D            '  '  '    A7
It's all right


Verse 2:
-------

D               '               G
Little darling, the smile's returning
         A7
to their faces
D               '               G
Little darling, it seems like years
               A7
since it's been here


Chorus:
------

D                   '    
Here comes the sun, do, dun, do, do
G                     E7
Here comes the sun, and I say
D            '  '  '    A7
It's all right


Bridge:
------

[ A7  F ][ C   C/B ][ G  D ] A7
    Sun, sun, sun, here it comes
    Sun, sun, sun, here it comes
    Sun, sun, sun, here it comes
    Sun, sun, sun, here it comes
    Sun, sun, sun, here it comes
    Sun, sun, sun, here it comes

A7,  Asus4,  A7,  A7


Verse 3:
-------

D               '               G
Little darling, I feel that ice is
       A7
slowly melting
D               '               G
Little darling, it seems like years
                A7
since it's been clear


Chorus:
------

D                   '
Here comes the sun, do, dun, do, do
G                     E7
Here comes the sun, and I say
D            '  '  '    A7
It's all right

Here comes the sun, do, dun, do, do
Here comes the sun
It's all right
It's all right
Top
Previous Song  Previous | Next  Next Song