+
- 
My Guitar Songbook
Good Evening  |  Sign In 
Here Comes the Sun 

Here Comes the Sun - The Beatles
  Artist: The Beatles
 Audio: willc's Music Library
 Rated: ( 1 )  | 

Capo 7th Fret - 4/4 Time

Intro:
-----

   D                               G                 A7
      _   _ _ _       _   _ _ _     _ _ _   _ _ _     _ _ _   _ 
   | | | | | | |   | | | | | | |   | | | | | | | |   | | | | | | |
e|---2---0-2-----|---2-0---------|-------0---------|-----------0---|
B|---3-3-------3-|---------3---0-|---3-------3---0-|-2-0-2-3-------|
G|---2-----------|-------------0-|-----------------|-0-------------|
D|-X-------------|-------------0-|-----------------|-2-------------|
A|---------------|-------------2-|-----------------|-0-------------|
E|---------------|-------------3-|-----------------|---------------|

   D                               G                 A7
      _   _ _ _       _   _ _ _     _ _ _   _   _ 
   | | | | | | |   | | | | | | |   | | | | | | | |   | | | |
e|---2---0-2-----|---2-0---------|---2---0---------|---------|
B|---3-3-------3-|---------3---0-|-----------3---2-|(2)------|
G|---2-----------|-------------0-|---------------0-|(0)------|
D|-0-------------|-------------0-|---------------2-|(2)------|
A|---------------|-------------2-|---------------0-|(0)------|
E|---------------|-------------3-|-----------------|---------|

   D                             G               E7
      _   _ _ _       _   _         _   _ _ _     _     _  
   | | | | | | |   | | | | | |   | | | | | | |   | | | | | |
e|---2-0---2-----|---2---0-2---|---2-0---2-----|-0-----------|
B|---3---------3-|-----3-------|-0-----------3-|-0---------3-|
G|---2-----------|-------------|-0-------------|-1-----1-----|
D|-0-------------|-------------|-0-------------|-0-----------|
A|---------------|-------------|-2-------------|-2-----------|
E|---------------|-------------|-3-------------|-0-----------|
  Here comes the sun, do, dun, do, do  Here comes the sun, and I say

   D
      _ _   _ _ _     _ _ _   _ _ _     _ _ _   _ _ _ 
   | | | | | | | |   | | | | | | | |   | | | | | | | |
e|---2---0---------|-----0-----0-----|-0-----0---------|
B|-----------3-----|---3-----3-----3-|-----3---3-2-0---|
G|---------------2s|-4-----2-----0---|---2-----------2-|
D|-0---------------|-----------------|-----------------|
A|-----------------|-----------------|-----------------|
E|-----------------|-----------------|-----------------|
  It's all right


Verse 1:
-------

   D                               G                 A7
      _   _ _ _       _   _ _ _     _ _ _   _ _ _     _ _ _   _ 
   | | | | | | |   | | | | | | |   | | | | | | | |   | | | | | | |
e|---2---0-2-----|---2-0---------|-------0---------|-----------0---|
B|---3-3-------3-|-------3-----0-|---3-------3---0-|-2-0-2-3-------|
G|---2-----------|-------------0-|-----------------|-0-------------|
D|-0-------------|-0-----------0-|-----------------|-2-------------|
A|---------------|-------------2-|-----------------|-0-------------|
E|---------------|-------------3-|-----------------|---------------|
  Little darling,    it's been a long     cold lonely winter

   D                               G                A7
      _   _ _ _       _   _ _ _     _ _ _   _   _ 
   | | | | | | |   | | | | | | |   | | | | | | | |   | | | |
e|---2---0-2-----|-----2-0-------|---2---0---------|---------|
B|---3-3-------3-|(3)------3---0-|-----------3---2-|(2)------|
G|---2-----------|-------------0-|---------------0-|(0)------|
D|-0-------------|-------------0-|---------------2-|(2)------|
A|---------------|-------------2-|---------------0-|(0)------|
E|---------------|-------------3-|-----------------|---------|
  Little darling,    it feels like years  since it's been here


Chorus 1:
--------

   D                             G               E7
      _   _ _ _       _   _         _   _ _ _     _     _  
   | | | | | | |   | | | | | |   | | | | | | |   | | | | | |
e|---2-0---2-----|---2---0-2---|---2-0---2-----|-0-----------|
B|---3---------3-|-----3-------|-0-----------3-|-0---------3-|
G|---2-----------|-------------|-0-------------|-1-----1-----|
D|-0-------------|-------------|-0-------------|-0-----------|
A|---------------|-------------|-2-------------|-2-----------|
E|---------------|-------------|-3-------------|-0-----------|
  Here comes the sun, do, dun, do, do  Here comes the sun, and I say

   D
      _ _   _ _ _     _ _ _   _ _ _     _ _ _   _ _ _       _   _  
   | | | | | | | |   | | | | | | | |   | | | | | | | |   | | | | | |
e|---2---0---------|-----0-----0-----|-0-----0---------|-2-2---0-2---|
B|-----------3-----|---3-----3-----3-|-----3---3-2-0---|-3---3-------|
G|---------------2s|-4-----2-----0---|---2-----------2-|-2-----------|
D|-0---------------|-----------------|-----------------|-0-----------|
A|-----------------|-----------------|-----------------|-------------|
E|-----------------|-----------------|-----------------|-------------|
  It's all right

   A7
    _ _ _   _ 
   | | | | | | |
e|-----------0---|
B|-2-0-2-3-------|
G|-0-------------|
D|-2-------------|
A|-0-------------|
E|---------------|


Verse 2:
-------

   D                               G                 A7
      _   _ _ _       _   _ _ _     _ _ _   _ _ _     _ _ _   _ 
   | | | | | | |   | | | | | | |   | | | | | | | |   | | | | | | |
e|---2---0-2-----|---2-0---------|-------0---------|-----------0---|
B|---3-3-------3-|-------3-----0-|---3-------3---0-|-2-0-2-3-------|
G|---2-----------|-------------0-|-----------------|-0-------------|
D|-0-------------|-0-----------0-|-----------------|-2-------------|
A|---------------|-------------2-|-----------------|-0-------------|
E|---------------|-------------3-|-----------------|---------------|
  Little darling,    the smile's returning  to their faces

   D                               G                A7
      _   _ _ _       _   _ _ _     _ _ _   _   _ 
   | | | | | | |   | | | | | | |   | | | | | | | |   | | | |
e|---2---0-2-----|-----2-0-------|---2---0---------|---------|
B|---3-3-------3-|(3)------3---0-|-----------3---2-|(2)------|
G|---2-----------|-------------0-|---------------0-|(0)------|
D|-0-------------|-------------0-|---------------2-|(2)------|
A|---------------|-------------2-|---------------0-|(0)------|
E|---------------|-------------3-|-----------------|---------|
  Little darling,    it seems like years since it's been here


Chorus 2:
--------

   D                             G               E7
      _   _ _ _       _   _         _   _ _ _     _     _  
   | | | | | | |   | | | | | |   | | | | | | |   | | | | | |
e|---2-0---2-----|---2---0-2---|---2-0---2-----|-0-----------|
B|---3---------3-|-----3-------|-0-----------3-|-0---------3-|
G|---2-----------|-------------|-0-------------|-1-----1-----|
D|-0-------------|-------------|-0-------------|-0-----------|
A|---------------|-------------|-2-------------|-2-----------|
E|---------------|-------------|-3-------------|-0-----------|
  Here comes the sun, do, dun, do, do  Here comes the sun, and I say

   D
      _ _   _ _ _     _ _ _   _ _ _     _ _ _   _ _ _       _   _  
   | | | | | | | |   | | | | | | | |   | | | | | | | |   | | | | | |
e|---2---0---------|-----0-----0-----|-0-----0---------|-2-2---0-2---|
B|-----------3-----|---3-----3-----3-|-----3---3-2-0---|-3---3-------|
G|---------------2s|-4-----2-----0---|---2-----------2-|-2-----------|
D|-0---------------|-----------------|-----------------|-0-----------|
A|-----------------|-----------------|-----------------|-------------|
E|-----------------|-----------------|-----------------|-------------|
  It's all right

   A7

   |  |
e|------|
B|-2----|
G|-0----|
D|-2----|
A|-0----|
E|------|


Bridge:
------

  A7     F       C     G/B   G     D         A7
    _ _   _ _     _ _     _   _       _ _  
   | | | | | |   | | | | | | | |   | | | | |   |  |
e|-------------|-----------------|---2---0-2-|-0----|
B|-----------1-|-----------------|---3-3-----|-2----|
G|.--------2---|-----0-----0-----|---2-------|-0---.| (X6)
D|.----2-3-----|---2-----0-------|-0---------|-2---.|
A|-0h4---------|-3-----2-------2-|-----------|-0----|
E|-------------|-------------3---|-----------|------|
        Sun,   sun,   sun,  here it comes
        Sun,   sun,   sun,  here it comes
        Sun,   sun,   sun,  here it comes
        Sun,   sun,   sun,  here it comes
        Sun,   sun,   sun,  here it comes
        Sun,   sun,   sun,  here it comes

   A7            A7sus4            A7         A7
    _     _ _ _     _     _ _ _     _     _ _ _
   | | | | | | |   | | | | | | |   | | | | | | |
e|---------------|-------------0-|-----------0-3-|
B|-2-------0-2-3-|(3)------2-3-2-|(2)------3---2-|
G|-0-----------0-|(0)----------0-|(0)----------0-|
D|-2-----------2-|(2)----------2-|(2)----------2-|
A|-0-----------0-|(0)----------0-|(0)----------0-|
E|---------------|---------------|---------------|


Verse 3:
-------

   D                               G                 A7
      _   _ _ _       _   _ _ _     _ _ _   _ _ _     _ _ _   _ 
   | | | | | | |   | | | | | | |   | | | | | | | |   | | | | | | |
e|---2---0-2-----|---2-0---------|-------0---------|-----------0---|
B|---3-3-------3-|-------3-----0-|---3-------3---0-|-2-0-2-3-------|
G|---2-----------|-------------0-|-----------------|-0-------------|
D|-0-------------|-0-----------0-|-----------------|-2-------------|
A|---------------|-------------2-|-----------------|-0-------------|
E|---------------|-------------3-|-----------------|---------------|
  Little darling,    I feel that ice is slowly melting

   D                               G                A7
      _   _ _ _       _   _ _ _     _ _ _   _   _ 
   | | | | | | |   | | | | | | |   | | | | | | | |   | | | |
e|---2---0-2-----|-----2-0-------|---2---0---------|---------|
B|---3-3-------3-|(3)------3---0-|-----------3---2-|(2)------|
G|---2-----------|-------------0-|---------------0-|(0)------|
D|-0-------------|-------------0-|---------------2-|(2)------|
A|---------------|-------------2-|---------------0-|(0)------|
E|---------------|-------------3-|-----------------|---------|
  Little darling,    it seems like years since it's been clear


Chorus 3:
--------

   D                             G               E7
      _   _ _ _       _   _         _   _ _ _     _     _  
   | | | | | | |   | | | | | |   | | | | | | |   | | | | | |
e|---2-0---2-----|---2---0-2---|---2-0---2-----|-0-----------|
B|---3---------3-|-----3-------|-0-----------3-|-0---------3-|
G|---2-----------|-------------|-0-------------|-1-----1-----|
D|-0-------------|-------------|-0-------------|-0-----------|
A|---------------|-------------|-2-------------|-2-----------|
E|---------------|-------------|-3-------------|-0-----------|
  Here comes the sun, do, dun, do, do  Here comes the sun, and I say

   D
      _ _   _ _ _     _ _ _   _ _ _     _ _ _   _ _ _ 
   | | | | | | | |   | | | | | | | |   | | | | | | | |
e|---2---0---------|-----0-----0-----|-0-----0---------|
B|-----------3-----|---3-----3-----3-|-----3---3-2-0---|
G|---------------2s|-4-----2-----0---|---2-----------2-|
D|-0---------------|-----------------|-----------------|
A|-----------------|-----------------|-----------------|
E|-----------------|-----------------|-----------------|
  It's all right


Chorus 4:
--------

   D                             G               E7
      _   _ _ _       _   _         _   _ _ _     _     _  
   | | | | | | |   | | | | | |   | | | | | | |   | | | | | |
e|---2-0---2-----|---2---0-2---|---2-0---2-----|-0-----------|
B|---3---------3-|-----3-------|-0-----------3-|-0---------3-|
G|---2-----------|-------------|-0-------------|-1-----1-----|
D|-0-------------|-------------|-0-------------|-0-----------|
A|---------------|-------------|-2-------------|-2-----------|
E|---------------|-------------|-3-------------|-0-----------|
  Here comes the sun, do, dun, do, do  Here comes the sun, and I say

   D
      _ _   _ _ _     _ _ _   _ _ _     _ _ _   _ _ _ 
   | | | | | | | |   | | | | | | | |   | | | | | | | |
e|---2---0---------|-----0-----0-----|-0-----0---------|
B|-----------3-----|---3-----3-----3-|-----3---3-2-0---|
G|---------------2s|-4-----2-----0---|---2-----------2-|
D|-0---------------|-----------------|-----------------|
A|-----------------|-----------------|-----------------|
E|-----------------|-----------------|-----------------|
  It's all right

   D
      _ _   _ _ _     _ _ _   _ _ _     _ _ _   _ _ _
   | | | | | | | |   | | | | | | | |   | | | | | | | |
e|---2---0---------|-----0-----0-----|-0-----0---------|
B|-----------3-----|---3-----3-----3-|-----3---3-2-0---|
G|---------------2s|-4-----2-----0---|---2-----------2-|
D|-0---------------|-----------------|-----------------|
A|-----------------|-----------------|-----------------|
E|-----------------|-----------------|-----------------|
  It's all right


Outro:
-----

  A7     F       C     G/B   G     D
    _ _   _ _     _ _     _   _            
   | | | | | |   | | | | | | | |   | | | |
e|-------------|-----------------|-2-------|
B|-----------1-|-----------------|-3-------|
G|---------2---|-----0-----0-----|-2-------|
D|-----2-3-----|---2-----0-------|-0-------|
A|-0h4---------|-3-----2-------2-|---------|
E|-------------|-------------3---|---------|


*:·..·:*¨¨*:·..·:*¨¨*:·..·:*¨¨*:·..·:*


Lyrics:
------

Here comes the sun, do, dun, do, do
Here comes the sun, and I say
It's all right

Little darling, it's been a long cold lonely winter
Little darling, it feels like years since it's been here

Here comes the sun, do, dun, do, do
Here comes the sun, and I say
It's all right

Little darling, the smile's returning to their faces
Little darling, it seems like years since it's been here

Here comes the sun, do, dun, do, do
Here comes the sun, and I say
It's all right

Sun, sun, sun, here it comes
Sun, sun, sun, here it comes
Sun, sun, sun, here it comes
Sun, sun, sun, here it comes
Sun, sun, sun, here it comes
Sun, sun, sun, here it comes

Little darling, I feel that ice is slowly melting
Little darling, it seems like years since it's been clear

Here comes the sun, do, dun, do, do
Here comes the sun, and I say
It's all right

Here comes the sun, do, dun, do, do
Here comes the sun
It's all right
It's all right
 
Previous Song  Previous | Next  Next Song