My Guitar Songbook
Good Morning  |  Sign In 
Have You Ever Seen The Rain? (Fingerstyle) 

Song Info  |  Tutorial  |  Tab  |  Rate
Have You Ever Seen The Rain? (Fingerstyle) - Nicola Mandorino ( 1 )
 Standard Tuning - 4/4 Time
 Arranged By: Nicola Mandorino
 Audio File From: Tutorial
Intro:
-----

Em  C  G  D           G         [Riff]
               _                       _
          | | | | |   | | | |   | | | | |
       e|-----------|---------|-----------|
       B|-5-3-------|---------|-----------|
       G|-----4-4---|---------|-0---------|
       D|---------0-|---------|---4-2-0-0-|
       A|-----------|---------|-----------|
       E|-----------|-3-------|-----------|


Verse:
-----

   G
      _     _     _   _       _     _
   | | | | | |   | | | | |   | | | | | |
e|-------------|---------3-|-------------|
B|-----------0-|---------0-|-----------0-|
G|-------0-----|---0-0---0-|-------0-----|
D|---0h2---2---|-----0---0-|---0h2---2---|
A|-------------|-----------|-------------|
E|-3-----3-----|-3-----3---|-3-----3-----|

   G             D           D
    _     _           _       _   _
   | | | | | |   | | | | |   | | | | | |
e|-------------|-----------|-------------|
B|---------3-3-|-----------|-3-3-3---1-1-|
G|---0-0-------|---2-----2-|-----2-------|
D|-----0-------|---0---0---|-----0-------|
A|-------------|-----------|-------------|
E|-3-----3-----|-2---2-----|-2-----2-----|

   G           G
        _         _   _
   | | | | |   | | | | | |
e|-----------|-------------|
B|---0-0-----|-------------|
G|-----0-----|-----0-----0-|
D|-----0---0-|---0-----0---|
A|-----------|-------------|
E|-3-----3---|-3-----3-----|


Chorus:
------

   C             D             G   D
    _     _         _   _
   | | | | | |   | | | | | |   | | | |
e|-------0-----|-------------|---------|
B|-----1---3p1-|-3-------0-1-|-3-3-3---|
G|---0---------|-2-2---2-----|-0---2-0-|
D|-------2-----|-0---0-------|-0---0---|
A|-3-----------|-------------|---------|
E|-------------|-------------|-3---2---|

   Em  D       C             D
        _         _     _         _   _
   | | | | |   | | | | | |   | | | | | |
e|-----------|-------0-----|-------------|
B|---------3-|-----1---3p1-|-3-------0-1-|
G|-0-----2---|---0---------|-2-2---2-----|
D|-2---0-----|-------2-----|-0---0-------|
A|-----------|-3-----------|-------------|
E|-0---------|-------------|-------------|

   G   D     Em  D       C
                  _         _
   | | | |   | | | | |   | | | | |
e|---------|-----------|-----------|
B|-3-3-3---|---------3-|-----------|
G|-0---2-0-|-0-----2---|-------0-0-|
D|-0---0---|-2---0-----|---2-------|
A|---------|-----------|-3---3-----|
E|-3---2---|-0---------|-----------|

   D             G         G           G
      _     _                     _
   | | | | | |   | | | |   | | | | |   |
e|-------------|-----3---|-----------|-----|
B|-------0-----|-----0---|-----------|-----|
G|---------0-0-|-----0---|-0---------|-----|
D|---0-0-------|-----0---|---4-2-0-0-|-----|
A|-5-----5-----|---------|-----------|-----|
E|-------------|-3-------|-----------|-3---|


*:·..·:*¨¨*:·..·:*¨¨*:·..·:*


Lyrics and Chords
-----------------

Verse 1:
-------

G                '
Someone told me long ago
G                 '                D
There's a calm before the storm, I know
     D                     G       '
It's been coming for some time

G                  '
When it's over, so they say
     G            '        D
It'll rain a sunny day, I know
D                  G       '
Shining down like water


Chorus 1:
--------

C         D
I wanna know
*[    ][ G  D/F# ][ Em  D    ]
Have you ever seen  the rain
C         D
I wanna know
*[    ][ G  D/F# ][ Em  D    ]
Have you ever seen the rain
C       D               G    Riff
Coming down on a sunny day


Verse 2:
-------

G                '
Yesterday and days before
G                 '                D
Sun is cold and rain is hard, I know
   D                       G
Been that way for all my time

G              '
'Til forever on it goes
     G            '        D
Through the circle fast and slow, I know
D                  G       '
And it can't stop, I wonder


Chorus 2:
--------

C         D
I wanna know
* [    ][ G  D/F# ][ Em  D    ]
Have you ever seen  the rain
C         D
I wanna know
* [    ][ G  D/F# ][ Em  D    ]
Have you ever seen the rain
C       D               G     Riff
Coming down on a sunny day


Solo: (see above)


Chorus 3:
--------

C         D
I wanna know
* [    ][ G  D/F# ][ Em  D    ]
Have you ever seen  the rain
C         D
I wanna know
* [    ][ G  D/F# ][ Em  D    ]
Have you ever seen the rain
C       D               G     '
Coming down on a sunny day


Chorus 4:
--------

C         D
I wanna know
* [    ][ G  D/F# ][ Em  D    ]
Have you ever seen  the rain
C         D
I wanna know
**[    ][ G  D/F# ][ Em  D    ]
Have you ever seen the rain
C       D               G     Riff
Coming down on a sunny day


Outro:
-----

C       D               G     '
Coming down on a sunny day
C       D               G     Riff
Coming down on a sunny day


*:·..·:*¨¨*:·..·:*¨¨*:·..·:*


*[    ][ G  D/F# ][ Em  D    ]
    _                   _ 
   | |   | | | |   | | | | |
e|-----|---------|-----------|
B|-0-1-|-3-3-3---|---------3-|
G|-----|-0---2-0-|-0-----2---|
D|-----|-0---0---|-2---0-----|
A|-----|---------|-----------|
E|-----|-3---2---|-0---------|
        
Song Info  |  Tutorial  |  Tab (pdf)  |  Rate  | 
 
  Previous Song  Previous | Next  Next Song