My Guitar Songbook
Good Evening   |  Sign In 
Have You Ever Seen The Rain?...  

Audio, Chords and Tab Info  |  Tutorial Tutorial  |  Download: pdf pdf
Have You Ever Seen The Rain? (Fingerstyle) - Nicola Mandorino
* Audio file gathered from willc's personal music library

Have You Ever Seen The Rain? (Fingerstyle) - Nicola Mandorino  (4/4)

Arranged By: Nicola Mandorino (https://www.guitarnick.com)


Intro:
-----

Em  C  G    D    _      G
            | | | | |   | | | |
         e|-----------|---------|
         B|-5-3-------|---------|
         G|-----4-4---|---------|
         D|---------0-|---------|
         A|-----------|---------|
         E|-----------|-3-------|


Melody/Solo:
-----------

   G [Riff]    G [Verse]
          _       _     _     _   _       _     _
   | | | | |   | | | | | |   | | | | |   | | | | | |
e|-----------|-------------|---------3-|-------------|
B|-----------|-----------0-|---------0-|-----------0-|
G|-0---------|.------0-----|---0-0---0-|-------0-----|
D|---4-2-0-0-|.--0h2---2---|-----0---0-|---0h2---2---|
A|-----------|-------------|-----------|-------------|
E|-----------|-3-----3-----|-3-----3---|-3-----3-----|

                 D                        G
    _     _           _       _   _             _    
   | | | | | |   | | | | |   | | | | | |   | | | | |
e|-------------|-----------|-------------|-----------|
B|---------3-3-|-----------|-3-3-3---1-1-|---0-0-----|
G|---0-0-------|---2-----2-|-----2-------|-----0-----|
D|-----0-------|---0---0---|-----0-------|-----0---0-|
A|-------------|-----------|-------------|-----------|
E|-3-----3-----|-2---2-----|-2-----2-----|-3-----3---|

   G             C [Chorus]    D             G   D
      _   _         _     _         _   _
   | | | | | |   | | | | | |   | | | | | |   | | | |
e|-------------|-------0-----|-------------|---------|
B|-------------|-----1---3p1-|-3-------0-1-|-3-3-3---|
G|-----0-----0.|---0---------|-2-2---2-----|-0---2-0-|
D|---0-----0--.|-------2-----|-0---0-------|-0---0---|
A|-------------|-3-----------|-------------|---------|
E|-3-----3-----|-------------|-------------|-3---2---|

    Em  D        C             D             G   D
         _          _     _         _   _         
    | | | | |    | | | | | |   | | | | | |   | | | |
e|-------------|-------0-----|-------------|---------|
B|----------3--|-----1---3p1-|-3-------0-1-|-3-3-3---|
G|--0-----2----|---0---------|-2-2---2-----|-0---2-0-|
D|--2---0------|-------2-----|-0---0-------|-0---0---|
A|-------------|-3-----------|-------------|---------|
E|--0----------|-------------|-------------|-3---2---|

    Em  D        C           D             G
         _          _           _     _
    | | | | |    | | | | |   | | | | | |   | |  |  |
e|-------------|-----------|-------------|------3----|
B|----------3--|-----------|-------0-----|------0----|
G|--0-----2----|-------0-0-|---------0-0-|------0----|
D|--2---0------|---2-------|---0-0-------|------0----|
A|-------------|-3---3-----|-5-----5-----|-----------|
E|--0----------|-----------|-------------|-3---------|

                  G
           _
    | | | | |     | | | |
e|-------------|-----------|
B|-------------|-----------|
G|--0----------|-----------|
D|----4-2-0-0--|-----------|
A|-------------|-----------|
E|-------------|--3--------|

*:·..·:*¨¨*:·..·:*¨¨*:·..·:*¨¨*:·..·:*¨¨*:·..·:*

Lyrics and Chords
-----------------

Verse 1:
-------

G                '
Someone told me long ago
G                 '                D
There's a calm before the storm, I know
     D                     G       '
It's been coming for some time

G                  '
When it's over, so they say
     G            '        D
It'll rain a sunny day, I know
D                  G       '
Shining down like water


Chorus 1:
--------

C         D
I wanna know
*[    ][ G  D/F# ][ Em  D    ]
Have you ever seen  the rain
C         D
I wanna know
*[    ][ G  D/F# ][ Em  D    ]
Have you ever seen the rain
C       D               G    Riff
Coming down on a sunny day


Verse 2:
-------

G                '
Yesterday and days before
G                 '                D
Sun is cold and rain is hard, I know
   D                       G
Been that way for all my time

G              '
'Til forever on it goes
     G            '        D
Through the circle fast and slow, I know
D                  G       '
And it can't stop, I wonder


Chorus 2:
--------

C         D
I wanna know
* [    ][ G  D/F# ][ Em  D    ]
Have you ever seen  the rain
C         D
I wanna know
* [    ][ G  D/F# ][ Em  D    ]
Have you ever seen the rain
C       D               G     Riff
Coming down on a sunny day


Melody/Solo: (see above)


Chorus 3:
--------

C         D
I wanna know
* [    ][ G  D/F# ][ Em  D    ]
Have you ever seen  the rain
C         D
I wanna know
* [    ][ G  D/F# ][ Em  D    ]
Have you ever seen the rain
C       D               G     '
Coming down on a sunny day


Chorus 4:
--------

C         D
I wanna know
* [    ][ G  D/F# ][ Em  D    ]
Have you ever seen  the rain
C         D
I wanna know
**[    ][ G  D/F# ][ Em  D    ]
Have you ever seen the rain
C       D               G     Riff
Coming down on a sunny day


Outro:
-----

C       D               G     '
Coming down on a sunny day
C       D               G     Riff
Coming down on a sunny day


*:·..·:*¨¨*:·..·:*¨¨*:·..·:*


*[    ][ G  D/F# ][ Em  D    ]
    _                   _ 
   | |   | | | |   | | | | |
e|-----|---------|-----------|
B|-0-1-|-3-3-3---|---------3-|
G|-----|-0---2-0-|-0-----2---|
D|-----|-0---0---|-2---0-----|
A|-----|---------|-----------|
E|-----|-3---2---|-0---------|
        
  Info  |  Tutorial Tutorial  |  Download: pdf pdf
 
 

Song Facts
Rate this Song
Website Stats
Have You Ever Seen The Rain?... - Nicola Mandorino
Have You Ever Seen The Rain? (Fingerstyle) - Nicola Mandorino
This version of the song is arranged by: Nicola Mandorino (2019).

At his website - https://www.guitarnick.com/ you will find lots of guitar lessons and full songs with tabs, sheet music, backing tracks, chords and tutorials, for beginners or advanced guitarists. Turn your computer on, take your guitar, watch the tutorial, play the tab and learn the songs. The teacher is at your home. Have fun! Currently there are 900 tutorials on his website.

YouTube Video: https://www.youtube.com/watch?v=6tmvEMLHOh8

*:·..·:*¨¨*:·..·:*¨¨*:·..·:*¨¨*:·..·:*

"Have You Ever Seen the Rain?" is a song written by John Fogerty and released as a single in 1971 from the album Pendulum (1970) by roots rock group Creedence Clearwater Revival. The song charted highest in Canada, reaching number one on the RPM 100 national singles chart in March 1971. In the U.S., in the same year it peaked at number eight on the Billboard Hot 100 singles chart (where it was listed as "Have You Ever Seen the Rain? / Hey Tonight", together with the B-side). On Cash Box pop chart, it peaked at number three. In the UK, it reached number 36. It was the group's eighth gold-selling single.

Have You Ever Seen The Rain? - Creedence Clearwater Revival

Have You Ever Seen The Rain? - Willie Nelson & Paula Nelson

Source: Wikipedia, the free encyclopedia

Have You Ever Seen The Rain?... - Nicola Mandorino




Have You Ever Seen The Rain?... - Nicola Mandorino
Adder: Bill Charrette [ willc ]
Date: 8/8/2020
Updated: 8/17/2020
Tab By: willc
Rated: (1) Hot!
Views: 93
pdf Hits: 20
Genre: Rock
 
  Previous Song  Previous | Next  Next Song   

The tab, notation and pdf files are my own work and represent my interpretation of the songs. These files are put together and formatted in Notepad, transformed to MS Word and converted to pdf format to save or print the composition. And, if available, a link back to the Tutorial. Tab files with references to any artist are not meant to be actual transcriptions of copyrighted material.

The audio files are gathered from my personal music library or extracted from websites offering free guitar lessons. I do not own the copyright of the songs and audio files, all rights belong to the copyright holders – no copyright infringement is intended. See About Us & Disclaimer

For superb lessons, original videos and tabs etc. check out the many websites and Resources mentioned throughout this site.