My Guitar Songbook
Good Evening Guitar Player  |  Sign In 
Wild World (Fingerstyle)  

Audio, Chords and Tab Info  |  Tutorial Tutorial  |  Download: pdf pdf
Wild World (Fingerstyle) - Assaf Levavy
* Audio file gathered from willc's personal music library

Wild World (Fingerstyle) - Assaf Levavy  (4/4)

Arranged By: Assaf Levavy (LickN'Riff)
YouTube Video: https://www.youtube.com/watch?v=cMQAu9cNG_o

Tablature: [NOTE: Lyrics and Chords below]
---------

Intro:
-----

   Am       D7       G       Cmaj7     F
      _ _ _   _ _ _       _ _   _   _ 
   | | | | | | | | | |   | | | | | | | |
e|---------------------|-----------------|
B|---1-1-1-1-1-1-1-1-0-|-0-0-0-0-0-0-0---|
G|---------------------|---------------2-|
D|-----------0---------|---------------3-|
A|-0-------------------|-------3---------|
E|-------------------3-|-----------------|
   La la la la

           Dm          E    Esus4 lick         Esus4 lick
    _ _ _   _ _ _   _       _ _     _          _ _
   | | | | | | | | | | |   | | | | | |        | | | | | |
e|-----------------------|-------------|    |-------------|
B|---------------0-------|---------0h1-|    |-------------|
G|-2-2-2-2-2-2-2---2s1---|---1---2-----|    |-1-1-1-2-4h5-|
D|---------3-----------2-|-2---2-------| or |-2-2-2-4-6---|
A|---------5-------------|-------------|    |-------------|
E|-------------------0---|-------------|    |-------------|


Mini Solo: (Same Notes/Chords as Intro but higher octave)
---------

   Am       D7       G      Cmaj7    F       Dm        E
    _   _   _   _   _     _   _   _       _   _   _   _ 
   | | | | | | | | | |   | | | | | | |   | | | | | | | |
e|-----8-8-8-8-8-8-8-7-|-7-7-7-7-7-7-5-|-5-5-5-5-7-5-4---|
B|----10-----7-------8-|-----8-------6-|-----6---------5-|
G|-----9-----7-------7-|-----9-------5-|-----5---------4-|
D|-----------0-------0-|---------------|-----------------|
A|-0-------------------|-------------8-|-----5-----------|
E|---------------------|-----8---------|-------------0---|
                             T
   Esus4 lick
        _ _
   | | | | | |        | | | |
e|-------------|    |---------|
B|-------------|    |-3-------|
G|-1-1-1-2-4h5-|    |-4-------|
D|-2-2-2-4-6---| or |---------|
A|-------------|    |---------|
E|-------------|    |---------|


Verse 1:
-------

   Am       D7       G       Cmaj7     F
      _ _ _   _ _ _       _ _   _   _ 
   | | | | | | | | | |   | | | | | | | |
e|---------------------|-----------------|
B|---1-1-1-1-1-1-1-1-0-|-0-0-0-0-0-0-0---|
G|---------------------|---------------2-|
D|-----------0---------|---------------3-|
A|-0-------------------|-------3---------|
E|-------------------3-|-----------------|


           Dm          E    Esus4 lick          Esus4 lick
    _ _ _   _ _ _   _       _ _     _          _ _
   | | | | | | | | | | |   | | | | | |        | | | | | |
e|-----------------------|-------------|    |-------------|
B|---------------0-------|---------0h1-|    |-------------|
G|-2-2-2-2-2-2-2---2s1---|---1---2-----|    |-1-1-1-2-4h5-|
D|---------3-----------2-|-2---2-------| or |-2-2-2-4-6---|
A|---------5-------------|-------------|    |-------------|
E|-------------------0---|-------------|    |-------------|

  
   Am        D7      G        Cmaj7    F
      _ _ _   _ _ _       _   _   _   _ 
   | | | | | | | | | |   | | | | | | | | |
e|-------------0-------|-------------------|
B|---1-1-1-1-1---3p1-3-|-0-0-0-0-0-0-0-0---|
G|---------------------|-----------------2-|
D|-----------0---------|-----------------3-|
A|-0-------------------|-------3-----------|
E|-------------------3-|---------------1---|
                                       T

           Dm         [E      G lick ]  G7 lick
    _ _ _   _ _ _   _             _     _   _   _   _   _   _
   | | | | | | | | | | |   | | | | |   | | | | | | | | | | | |
e|-----------------------|-----------|-------------------------|
B|---------------0-------|-----------|-------------------------|
G|-x-x-2-2-2-2-2---2s1---|---------0-|---0---0---0---0---0---0-|
D|---------3-----------2-|-0-----0---|-3---3---2---2---0---0---|
A|---------5-------------|-----------|-------------------------|
E|-------------------0---|-3---------|-------------------------|


Chorus 1:
--------

   C       G             F       F lick
    _   _   _   _   _     _   _   _   _   _   _
   | | | | | | | | | |   | | | | | | | | | | | |
e|-----0---------------|-------------------------|
B|---------3-0-1-3-3p1-|-1-------1-0-------------|
G|---------------------|---2p0-------2-0---------|
D|---------------------|-------3---------3-2-0---|
A|-3-------------------|-----------------------3-|
E|---------3-----------|-1-----------------------|
                         T

   G       F             C             C lick
    _   _   _   _   _   _              _   _   _   _
   | | | | | | | | | | | |    |       | | | | | | | |
e|-------------------------|--------|-----------------|
B|---0-0-0-----------------|--------|-----------------|
G|---------2p0-------0---0-|-(0)----|-----------------|
D|-------------3-3-3---3---|--------|-----------------|
A|-----------------------3-|-(3)----|-----0-3-3-2-0---|
E|-3-------1---------------|--------|-3-3-----------3-|
           T

   C       G             F       F lick
    _   _   _   _   _     _   _   _   _   _   _
   | | | | | | | | | |   | | | | | | | | | | | |
e|-----0---------------|-------------------------|
B|---------3-0-1-3-3p1-|-1-------1-0-------------|
G|---------------------|---2p0-------2-0---------|
D|---------------------|-------3---------3-2-0---|
A|-3-------------------|-----------------------3-|
E|---------3-----------|-1-----------------------|
                         T

   G       F             C           Dm  E         Dm        E
    _   _   _   _   _   _             _   _          _   _   _   _ 
   | | | | | | | | | | | |    |  |   | | | |        | | | | | | | |
e|-------------------------|-------------0---|    |-------1---------|
B|---0-0-0-----------------|---------3---0---|    |-----3---------0-|
G|---------2p0-------0---0-|---------2---1---|    |---2---------1---|
D|-------------x-x-3---3---|-2p0-----0-------| or |-0---------2-----|
A|-----------------------3-|-----3-----------|    |-----------------|
E|-3-------1---------------|-----------------|    |---------0-------|
           T

Verse 2: (Same Notes/Chords as Verse 1)
-------

Verse 3: (Play: Mini Solo + Last 3 lines of Verse 1)
-------

 -- Mini Solo --

   Am       D7       G      Cmaj7    F       Dm        E
    _   _   _   _   _     _   _   _       _   _   _   _
   | | | | | | | | | |   | | | | | | |   | | | | | | | |
e|-----8-8-8-8-8-8-8-7-|-7-7-7-7-7-7-5-|-5-5-5-5-7-5-4---|
B|----10-----7-------8-|-----8-------6-|-----6---------5-|
G|-----9-----7-------7-|-----9-------5-|-----5---------4-|
D|-----------0-------0-|---------------|-----------------|
A|-0-------------------|-------------8-|-----5-----------|
E|---------------------|-----8---------|-------------0---|

   Esus4 lick
        _ _
   | | | | | |        | | | |
e|-------------|    |---------|
B|-------------|    |-3-------|
G|-1-1-1-2-4h5-|    |-4-------|
D|-2-2-2-4-6---| or |---------|
A|-------------|    |---------|
E|-------------|    |---------|


 -- Last 3 lines of Verse 1 --

   Am        D7      G        Cmaj7    F
      _   _   _   _       _   _   _   _ 
   | | | | | | | | | |   | | | | | | | | |
e|-------------0-------|-------------------|
B|---1-1-1-1-1---3p1-3-|-0-0-0-0-0-0-0-0---|
G|---------------------|-----------------2-|
D|-----------0---------|-----------------3-|
A|-0-------------------|-------3-----------|
E|-------------------3-|---------------1---|
                                       T

           Dm           [ E    G lick]  G7 lick
    _ _ _   _ _ _   _             _     _   _   _   _   _   _
   | | | | | | | | | | |   | | | | |   | | | | | | | | | | | |
e|-----------------------|-----------|-------------------------|
B|---------------0-------|-----------|-------------------------|
G|-x-x-2-2-2-2-2---2s1---|---------0-|---0---0---0---0---0---0-|
D|---------3-----------2-|-0-----0---|-3---3---2---2---0---0---|
A|---------5-------------|-----------|-------------------------|
E|-------------------0---|-3---------|-------------------------|


Chorus 3: (Same Notes/Chords as Chorus 1)
--------

Chorus 4: (Same Notes/Chords as Chorus 1)
--------

T = Use Thumb to play 'F' note (Low E String 1st Fret)


*:·..·:*¨¨*:·..·:*¨¨*:·..·:*¨¨*:·..·:*¨¨*:·..·:*¨¨*:·..·:*


Lyrics and Chords:
-----------------

Verse 1:
-------

Am             D7                  G
Now that I've lost everything to you
            Cmaj7                  F
You say you want to start something new
             Dm                    E            'Esus4 lick'
And it's breaking my heart you're leaving, baby I'm grieving
Am                     D7          G
But if you want to leave take good care
                Cmaj7              F
Hope you have a lot of nice things to wear
            Dm                  [ E    G lick ]  'G7 lick'
But then a lot of nice things turn bad out there


Chorus:
------

C         G               F      F lick
Oh, baby, baby it's a wild world
G                  F          C  'C lick'
It's hard to get by just upon a smile
C        G           F           F lick
Oh, baby, baby it's a wild world
G             F                C         [ 'Dm    E lick' ]
I'll always remember you like a child, girl


Verse 2:
-------

Am                  D7                       G
You know I've seen a lot of what the world can do
            Cmaj7              F
And it's breaking my heart in two
             Dm                E               'Esus4 lick'
Cuz I never want to see you sad girl. Don't be a bad girl
Am                     D7          G
But if you want to leave take good care
                Cmaj7                  F
Hope you make a lot of nice friends out there
            Dm                  [ E    G lick ]  'G7 lick'
But just remember there's a lot of bad and beware


Chorus 2:
--------

C         G               F      'F lick'
Oh, baby, baby it's a wild world
G                  F          C  'C lick'
It's hard to get by just upon a smile
C        G           F           'F lick'
Oh, baby, baby it's a wild world
G             F                C        [ 'Dm     E lick' ]
I'll always remember you like a child, girl


Verse 3:
-------

Mini Solo:

   Am       D7       G      Cmaj7    F       Dm        E
    _   _   _   _   _     _   _   _       _   _   _   _
   | | | | | | | | | |   | | | | | | |   | | | | | | | |
e|-----8-8-8-8-8-8-8-7-|-7-7-7-7-7-7-5-|-5-5-5-5-7-5-4---|
B|----10-----7-------8-|-----8-------6-|-----6---------5-|
G|-----9-----7-------7-|-----9-------5-|-----5---------4-|
D|-----------0-------0-|---------------|-----------------|
A|-0-------------------|-------------8-|-----5-----------|
E|---------------------|-----8---------|-------------0---|

   Esus4 lick
        _ _
   | | | | | |        | | | |
e|-------------|    |---------|
B|-------------|    |-3-------|
G|-1-1-1-2-4h5-|    |-4-------|
D|-2-2-2-4-6---| or |---------|
A|-------------|    |---------|
E|-------------|    |---------|

Am                     D7          G
But if you want to leave take good care
                Cmaj7                  F
Hope you make a lot of nice friends out there
            Dm                  [ E    G lick ]  'G7 lick'
But just remember there's a lot of bad and beware


Chorus 3:
--------

C         G               F      'F lick'
Oh, baby, baby it's a wild world
G                  F          C  'C lick'
It's hard to get by just upon a smile
C        G           F           'F lick'
Oh, baby, baby it's a wild world
G             F                C        [ 'Dm    E lick' ]
I'll always remember you like a child, girl


Chorus 4:
--------

C         G               F      'F lick'
Oh, baby, baby it's a wild world
G                  F          C  'C lick'
It's hard to get by just upon a smile
C        G           F           'F lick'
Oh, baby, baby it's a wild world
G             F                C
I'll always remember you like a child, girl
        
  Info  |  Tutorial Tutorial  |  Download: pdf pdf
 
 

Song Facts
Rate this Song
Website Stats
Wild World (Fingerstyle) - Assaf Levavy
Wild World (Fingerstyle) - Assaf Levavy
This version of the song is arranged By: Assaf Levavy (LickN'Riff)

If you're looking for an online guitar teacher that is not either trying to sell you something, or just bore you with the same old scales and exercises without giving you REAL INSIGHT about how to actually be CREATIVE with your guitar, then you've found the right place.

Visit Lick'N'Riff - http://www.licknriff.com/ for Free Lessons and Tab, Ear Training & Arrangement Courses and Private Arrangements & Transcriptions

*:·..·:*¨¨*:·..·:*¨¨*:·..·:*¨¨*:·..·:*

Cat Stevens, is an English singer-songwriter, multi-instrumentalist, educator, philanthropist, and prominent convert to Islam. His early 1970s record albums Tea for the Tillerman and Teaser and the Firecat were both certified triple platinum in the United States by the RIAA. His 1972 album Catch Bull at Four sold half a million copies in the first two weeks of release alone and was Billboard's number-one LP for three consecutive weeks. He has also earned two ASCAP songwriting awards in consecutive years for "The First Cut Is the Deepest", which has been a hit single for four different artists.

Audio: Wild World By Cat Stevens

Source: LickNRiff.com

Wild World (Fingerstyle) - Assaf Levavy




Wild World (Fingerstyle) - Assaf Levavy
Adder: Bill Charrette [ willc ]
Date: 6/8/2020
Tab By: willc
Rated: (1) Hot! Popular!
Views: 111
pdf Hits: 45
Genre: Rock
 
  Previous Song  Previous | Next  Next Song   

The tab, notation and pdf files are my own work and represent my interpretation of the songs. These files are put together and formatted in Notepad, transformed to MS Word and converted to pdf format to save or print the composition. And, if available, a link back to the Tutorial. Tab files with references to any artist are not meant to be actual transcriptions of copyrighted material.

The audio files are gathered from my personal music library or extracted from websites offering free guitar lessons. I do not own the copyright of the songs and audio files, all rights belong to the copyright holders – no copyright infringement is intended. See About Us & Disclaimer

For superb lessons, original videos and tabs etc. check out the many websites and Resources mentioned throughout this site.