My Guitar Songbook
Good Evening Guitar Player  |  Sign In 
Sweet Child O' Mine...  

Audio, Chords and Tab Info  |  Tutorial Tutorial  |  Download: pdf pdf
Sweet Child O' Mine (Fingerstyle) - Assaf Levavy
* Audio file gathered from willc's personal music library

Sweet Child O' Mine (Fingerstyle) - Assaf Levavy  (4/4)

Arranged By: LickN'Riff
Video: https://www.youtube.com/watch?v=CQ457aE_m0E


Intro: (3 times)
-----

   D                                   C
e|---------3---2---|---------3---2---|---------3---2---|---------3---2---|
B|---3-------------|---3-------------|---3-------------|---3-------------|
G|-----2-0---2---2-|-----2-0---2---2-|-----2-0---0---0-|-----2-0---0---0-|
D|-0---------------|-0---------------|-----------------|-----------------|
A|-----------------|-----------------|-3---------------|-3---------------|
E|-----------------|-----------------|-----------------|-----------------|

   G                                   D (play first 2 times around)
e|---------3---2---|---------3---2---|---------3---2---|---------3---2---|
B|---3-------------|---3-------------|---3-------------|---3-------------|
G|-----2-0---0---0-|-----2-0---0---0-|-----2-0---2---2-|-----2-0---2---2-|
D|-----------------|-----------------|-0---------------|-0---------------|
A|-----------------|-----------------|-----------------|-----------------|
E|-3---------------|-3---------------|-----------------|-----------------|

   D (play last or 3rd time around)
e|-0-------0---2---|-3---2---0-------|
B|-----3-----------|-------------3---|
G|---2---2---2---2-|---2---2---2-----|
D|-----------------|-----------------|
A|-----------------|-----------------|
E|-----------------|-----------------|


Verse 1 & 2:
-----------

   D                                   C
e|-5-------5-------|-3-2-3---3s5-----|-3---2---3-2---|-3-5-3----|
B|-3-------3-------|-----2-------2---|-3-----3-----3-|-----3--3-|
G|-2-------2-------|-----3-------3---|-0-------------|-----0----|
D|-0-------0-------|-----0-----------|---------------|----------|
A|-----------------|-----------------|-3-------------|-----3----|
E|-----------------|-----------------|---------------|----------|
1.She's got a smile that it seems to me. Reminds me of childhood memories
2.Now and then when I see her face. She takes me away to that special place

   G                              D
e|-3-2---3-2---3-2---|-3-5-3-2--|---------3---2---|---------3---2---|
B|-3---3-----3-----3-|-----3----|---3-------------|---3-------------|
G|-0-----------------|-----2----|-----2-0---2---2-|-----2-0---2---2-|
D|-------------------|-----0----|-0---------------|-0---------------|
A|-------------------|----------|-----------------|-----------------|
E|-3-----------------|----------|-----------------|-----------------|
1.Where everything was as fresh as a bright blue sky
2.And if I stared to long I'd probably break down and cry


Chorus:
------

   A       C                   D
e|-5---3-2-3--|-3-3-5---3-2--|---------3---2---|---------3---2---|
B|-2-------3--|---------3----|---3-------------|---3-------------|
G|-2-------0--|---------2----|-----2-0---2---2-|-----2-0---2---2-|
D|-0----------|---------0----|-0---------------|-0---------------|
A|---------3--|--------------|-----------------|-----------------|
E|------------|--------------|-----------------|-----------------|
Whoa Oh, Sweet child o' mine

   A            C            D (hold)           '
e|-5---3-2-3--|---0-2-0----|-----------------|-----------------|
B|-2-------3--|-3-------3--|-----------------|-----------------|
G|-2-------0--|------------|-----------------|-----------------|
D|-0----------|-------0----|-----------------|-----------------|
A|---------3--|---3--------|-----------------|-----------------|
E|------------|------------|-----------------|-----------------|
Whoa, Oh, Oh, Oh Sweet love o' mine


Solo:
----

   D                         C
e|-5---3---2--|-5---3---2--|-5---3---0--|-5---3---0--|
B|------------|------------|------------|------------|
G|------------|------------|------------|------------|
D|-----0------|-----0------|------------|------------|
A|------------|------------|-----3------|-----3------|
E|------------|------------|------------|------------|

   G                               D             '
e|-5---3------|-----0-3-5-3-2---|--------------|-------|
B|---------3--|-0-3-------------|--------------|-------|
G|------------|-----------------|--------------|-------|
D|------------|---------0---0---|--------------|-------|
A|------------|-----------------|--------------|-------|
E|-----3------|-------3---------|--------------|-------|


Verse 3 & 4:
-----------

   D                                   C
e|-5-------5-------|-3-2-3---3s5-----|-3---2---3-2---|-3-5-3----|
B|-3-------3-------|-----2-------2---|-3-----3-----3-|-----3--3-|
G|-2-------2-------|-----3-------3---|-0-------------|-----0----|
D|-0-------0-------|-----0-----------|---------------|----------|
A|-----------------|-----------------|-3-------------|-----3----|
E|-----------------|-----------------|---------------|----------|
3.She's got a smile that it seems to me. Reminds me of childhood memories
4.Her hair reminds me of a warm safe place where as a child I'd hide

   G                              D
e|-3-2---3-2---3-2---|-3-5-3-2--|---------3---2---|---------3---2---|
B|-3---3-----3-----3-|-----3----|---3-------------|---3-------------|
G|-0-----------------|-----2----|-----2-0---2---2-|-----2-0---2---2-|
D|-------------------|-----0----|-0---------------|-0---------------|
A|-------------------|----------|-----------------|-----------------|
E|-3-----------------|----------|-----------------|-----------------|
3.She's got eyes of the bluest skies And see an ounce of pain
4.And pray for the thunder and rain to quietly pass me by


Instrumental:
------------

Chorus:

   A       C              D
e|-5---3-2-3--|-3-3-5---3-2--|---------3---2---|---------3---2---|
B|-2-------3--|---------3----|---3-------------|---3-------------|
G|-2-------0--|---------2----|-----2-0---2---2-|-----2-0---2---2-|
D|-0----------|---------0----|-0---------------|-0---------------|
A|---------3--|--------------|-----------------|-----------------|
E|------------|--------------|-----------------|-----------------|

   A            C            D (hold)           '
e|-5---3-2-3--|---0-2-0----|-----------------|-----------------|
B|-2-------3--|-3-------3--|-----------------|-----------------|
G|-2-------0--|------------|-----------------|-----------------|
D|-0----------|-------0----|-----------------|-----------------|
A|---------3--|---3--------|-----------------|-----------------|
E|------------|------------|-----------------|-----------------|


Solo: (2 times)

   D                         C
e|-5---3---2--|-5---3---2--|-5---3---0--|-5---3---0--|
B|------------|------------|------------|------------|
G|------------|------------|------------|------------|
D|-----0------|-----0------|------------|------------|
A|------------|------------|-----3------|-----3------|
E|------------|------------|------------|------------|

   G                               D             '
e|-5---3------|-----0-3-5-3-2---|--------------|-------|
B|---------3--|-0-3-------------|--------------|-------|
G|------------|-----------------|--------------|-------|
D|------------|---------0---0---|--------------|-------|
A|------------|-----------------|--------------|-------|
E|-----3------|-------3---------|--------------|-------|


Chorus: (2 times)

   A       C                   D
e|-5---3-2-3--|-3-3-5---3-2--|---------3---2---|---------3---2---|
B|-2-------3--|---------3----|---3-------------|---3-------------|
G|-2-------0--|---------2----|-----2-0---2---2-|-----2-0---2---2-|
D|-0----------|---------0----|-0---------------|-0---------------|
A|---------3--|--------------|-----------------|-----------------|
E|------------|--------------|-----------------|-----------------|
Whoa Oh, Sweet child o' mine

   A            C            D (hold)           '
e|-5---3-2-3--|---0-2-0----|-----------------|-----------------|
B|-2-------3--|-3-------3--|-----------------|-----------------|
G|-2-------0--|------------|-----------------|-----------------|
D|-0----------|-------0----|-----------------|-----------------|
A|---------3--|---3--------|-----------------|-----------------|
E|------------|------------|-----------------|-----------------|
Whoa, Oh, Oh, Oh Sweet love o' mine


Em, C, B, A
Em, C, B, A
Em, C, B, A
Em, C, B, A, A


Outro:
-----

Em  G  A  [C  D] (4 times)

   Em           G            A            C       D
e|-0----------|-0----------|-0----------|-------0-------2-|
B|---3-0------|---3-0------|---3-0------|---1-------3-----|
G|-------2-0--|-------2-0--|-------2-0--|-----0-------2---|
D|------------|------------|------------|---------0-------|
A|------------|------------|-0----------|-3---------------|
E|-0----------|-3----------|------------|-----------------|
Where do we go, Where do we go, Where do we go now
Where do we go, Where do we go, Where do we go now
Where do we go, Sweet child, Where do we go now
Aih, Aih, Aih, Aih, Aih, Aih, Aih where do we gooooooooooooo  now
Where do we gooooooooooo, where do we go now
Where do we gooooooo, where do we go now
Where do we go-----, where do we go now Now-now-now-now-now-now-now
Sweet child, sweet chi-. . ld of mine
        
  Info  |  Tutorial Tutorial  |  Download: pdf pdf
 
 

Song Facts
Rate this Song
Website Stats
Sweet Child O' Mine... - Assaf Levavy
Sweet Child O' Mine (Fingerstyle) - Assaf Levavy
This version of the song is arranged By: Lick'NRiff

If you're looking for an online guitar teacher that is not either trying to sell you something, or just bore you with the same old scales and exercises without giving you REAL INSIGHT about how to actually be CREATIVE with your guitar, then you've found the right place.

Visit Lick'N'Riff - http://www.licknriff.com/ for Free Lessons and Tab, Ear Training & Arrangement Courses and Private Arrangements & Transcriptions

****************

"Sweet Child o' Mine" is a song by American rock band Guns N' Roses, appearing on their debut album, Appetite for Destruction. Released in August 1988 as the album's third single, the song topped the Billboard Hot 100 chart, becoming the band's only number 1 US single. Billboard ranked it the number 5 song of 1988. Re-released in 1989, it reached number 6 on the UK Singles Chart. Guitarist Slash said in 1990, "The song turned into a huge hit and now it makes me sick. I mean, I like it, but I hate what it represents."

Slash has been quoted as having an initial disdain for the song due to its roots as simply a "string skipping" exercise and a joke at the time. During a jam session at the band's house in the Sunset Strip, drummer Steven Adler and Slash were warming up and Slash began to play a "circus" melody while making faces at Adler. Rhythm guitarist Izzy Stradlin asked Slash to play it again. Stradlin came up with some chords, Duff McKagan created a bassline and Adler planned a beat. In his autobiography, Slash said "within an hour my guitar exercise had become something else". Lead singer Axl Rose was listening to the musicians upstairs in his room and was inspired to write lyrics, which he completed by the following afternoon. He based it on his girlfriend Erin Everly, and declared that Lynyrd Skynyrd served as an inspiration "to make sure that we'd got that heartfelt feeling". On the next composing session in Burbank, the band added a bridge and a guitar solo.

When the band recorded demos with producer Spencer Proffer, he suggested adding a breakdown at the song's end. The musicians agreed, but were not sure what to do. Listening to the demo in a loop, Rose started saying to himself, "Where do we go? Where do we go now?" and Proffer suggested that he sing that.

Audio: Sweet Child O' Mine - Guns N' Roses

Source: Wikipedia, the free encyclopedia

Sweet Child O' Mine... - Assaf Levavy




Sweet Child O' Mine... - Assaf Levavy
Adder: Bill Charrette [ willc ]
Date: 6/2/2019
Updated: 7/9/2020
Tab By: willc
Rated: (1) Hot! Popular!
Views: 552
pdf Hits: 221
Genre: Rock
 
  Previous Song  Previous | Next  Next Song   

The tab, notation and pdf files are my own work and represent my interpretation of the songs. These files are put together and formatted in Notepad, transformed to MS Word and converted to pdf format to save or print the composition. And, if available, a link back to the Tutorial. Tab files with references to any artist are not meant to be actual transcriptions of copyrighted material.

The audio files are gathered from my personal music library or extracted from websites offering free guitar lessons. I do not own the copyright of the songs and audio files, all rights belong to the copyright holders – no copyright infringement is intended. See About Us & Disclaimer

For superb lessons, original videos and tabs etc. check out the many websites and Resources mentioned throughout this site.