+
- 
My Guitar Songbook
Good Evening  |  Sign In 
I Don't Want To Talk About It 

I Don't Want To Talk About It - Rod Stewart
  Artist: Rod Stewart
 Audio: willc's Music Library
 Rated: ( 2 )  | 

Capo 3rd Fret - 4/4 Time

[NOTE: Lyrics and Chords below]

Tablature:
---------

Intro:
-----
                 Am7               D7
    _     _       _   _   _   _     _   _   _   _
   | | | | | |   | | | | | | | |   | | | | | | | |
e|-3---3-------|---------0-------|---------2-------|
B|-3h5-3-------|-----1-----1-----|-----1-----1-----|
G|-------4s2p0-|-------0-----0---|---2---2-----2---|
D|-------------|---2-----------2-|-0-------------0-|
A|-------------|-0---------------|-----------------|
E|-------------|-----------------|-----------------|

   G                 G
    _   _   _   _     _   _   _   _
   | | | | | | | |   | | | | | | | |
e|---------3-------|---------3-------|
B|-----0-----0-----|-----0-----0-----|
G|-------0-----0---|--------0----0---|
D|---0-----------0-|---0-----------0-|
A|-----------------|-----------------|
E|-3---------------|-3---------------|
                                  I can

Verse:
-----

   Am7               D7                G                 G
    _   _   _   _     _   _   _   _     _   _   _   _     _   _   _   _
   | | | | | | | |   | | | | | | | |   | | | | | | | |   | | | | | | | |
e|---------0-------|---------2-------|---------3-------|---------3-------|
B|-----1-----1-----|-----1-----1-----|-----0-----0-----|-----0-----0-----|
G|-------0-----0---|---2---2-----2---|-------0-----0---|-------0-----0---|
D|---2-----------2-|-0-------------0-|---0-----------0-|---0-----------0-|
A|-0---------------|-----------------|-----------------|-----------------|
E|-----------------|-----------------|-3---------------|-3---------------|
  tell by your eyes...probably...crying forever                    and the

   Am7               D7                G                 G
    _   _   _   _     _   _   _   _     _   _   _   _     _   _   _   _ 
   | | | | | | | |   | | | | | | | |   | | | | | | | |   | | | | | | | |
e|---------0-------|---------2-------|---------3-------|-----------------|
B|-----1-----1-----|-----1-----1-----|-----0-----0-----|-----------------|
G|-------0-----0---|---2---2-----2---|-------0-----0---|---0---0---0---0-|
D|---2-----------2-|-0-------------0-|---0-----------0-|-------------0---|
A|-0---------------|-----------------|-----------------|-----------------|
E|-----------------|-----------------|-3---------------|-3---1---0-------|
  stars in the sky...nothing...they're a mirror


Chorus:
------

   C                 D7                G      Bm/F#      Em
    _   _   _   _     _   _   _   _     _   _   _   _     _   _   _   _
   | | | | | | | |   | | | | | | | |   | | | | | | | |   | | | | | | | |
e|---------0-------|---------2-------|-----------------|---------0-------|
B|-----1-----1-----|-----1-----1-----|-----0-------0---|-----0-----0-----|
G|-------0-----0---|---2---2-----2---|-------0-------0-|-------0-----0---|
D|---2-----------2-|-0-------------0-|---0-------0-----|---2-----------2-|
A|-3---------------|-----------------|-----------------|-----------------|
E|-----------------|-----------------|-3-------2-------|-0---------------|
I don't wanna      talk about it       How you broke my heart

   C                 D7                C                 D7
    _   _   _   _     _   _   _   _     _   _   _   _     _   _   _   _
   | | | | | | | |   | | | | | | | |   | | | | | | | |   | | | | | | | |
e|---------0-------|---------2-------|---------0-------|---------2-------|
B|-----1-----1-----|-----1-----1-----|-----1-----1-----|-----1-----1-----|
G|-------0-----0---|---2---2-----2---|-------0-----0---|---2---2-----2---|
D|---2-----------2-|-0-------------0-|---2-----------2-|-0-------------0-|
A|-3---------------|-----------------|-3---------------|-----------------|
E|-----------------|-----------------|-----------------|-----------------|
If I stay here just a little bit longer if I stay here won't? listen to my 

   Am7               D7sus4            G                 G
    _   _   _   _     _   _   _   _     _   _   _   _     _   _   _   _
   | | | | | | | |   | | | | | | | |   | | | | | | | |   | | | | | | | |
e|---------0-------|---------3-------|---------3-------|---------3-------|
B|-----1-----1-----|-----1-----1-----|-----0-----0-----|-----0-----0-----|
G|-------0-----0---|---2---2-----2---|-------0-----0---|-------0-----0---|
D|---2-----------2-|-0-------------0-|---0-----------0-|---0-----------0-|
A|-0---------------|-----------------|-----------------|-----------------|
E|-----------------|-----------------|-3---------------|-3---------------|
heart      my heart  whoa         my heart


*:·..·:*¨¨*:·..·:*¨¨*:·..·:*


Lyrics and Chords:
-----------------

Intro:  Am7,  D7,  G,  G


Verse:
-----

       Am7
I can tell by your eyes
            D7                   G        '
That you've probably been crying forever
        Am7
And the stars in the sky
            D7                      G     [g f e d]
Don't mean nothing to you they're a mirror


Chorus:
------

C             D7
I don't wanna talk about it
[G   Bm/F# ]      Em
How you broke my heart
C                     D7
If I stay here just a little bit longer
C                        D7
If I stay here won't you listen 
      Am7  D7sus4   G      '
To my heart whoa my heart


Verse:
-----

      Am7
If I stand all alone
          D7                          G
Will the shadows hide the color of my heart
                    G
Blue for the tears, black for the night's fears
        Am7
And the stars in the sky
            D7                      G     [g f e d]
Don't mean nothing to you they're a mirror


Chorus:
------

C             D7
I don't wanna talk about it
[G   Bm/F# ]      Em
How you broke my heart
C                     D7
If I stay here just a little bit longer
C                        D7
If I stay here won't you listen 
      Am7  D7sus4   G      '
To my heart whoa my heart
      Am7  D7sus4   G      '
My heart whoa my heart


Solo:  Am7,  D7,  G, [g f e d]


Chorus:
------

C             D7
I don't wanna talk about it
[G   Bm/F# ]      Em
How you broke my heart
C                     D7
If I stay here just a little bit longer
C                        D7
If I stay here won't you listen 
      Am7  D7sus4   G      '
To my heart whoa my heart 
      Am7  D7sus4   G      '
My heart whoa my heart

Solo: (key change) Fade out
 
Previous Song  Previous | Next  Next Song