My Guitar Songbook
Good Morning  |  Sign In 
Gloria 

Song Info  |  Tab  |  Rate
Gloria - The Shadows of Knight ( 3 )
 Standard Tuning - 4/4 Time
 Audio File From: willc's Music Library

Intro and Chords: E [D A]  E [D A]  E [D A]

Like to tell ya bout my baby
You know she comes around
Just about five feet four 
From her head to the ground

You know she comes around here
Just about midnight
She makes me feel so good, lord
She makes me feel all right

And her name is G-l-o-r-iiii

G.l.o.r.i.a (Gloria)
G.l.o.r.i.a (Gloria)
I'm gonna shout it all night (Gloria)
I’m gonna shout it every day (Gloria)   
Yeah yeah yeah yeah yeah

Solo:
       __       __  
   |  |  |  |  |  |  
e|-12-12-12-10-9--10-|
B|-12-12-12-10-9--10-|
G|-13-13-13-11-10-11-| (3 times)
D|-------------------|
A|-------------------|
E|-------------------|


Bridge:
            _ 
   |   |   | | |
e|-4---2-----------|
B|-5---3---0h2p0---|
G|-4---2-----------|   (4 times)
D|-----------------|
A|-----------------|
E|-----------------|


She comes around here 
Just about midnight
She make me feel so good, lord
She make me feel all right


Bass Riff (optional):
    _   _       _     _   _       _ 
   | | | | |   | |   | | | | |   | |
e|-----------------|-----------------|
B|-----------------|-----------------|
G|-----------------|-----------------|
D|-------------7---|-----------------|
A|-7---5h7p5-----5-|-7---5h7p5---0-5-|
E|-----------------|-----------------|


She comes a walkin down the street
Why don't ya come to my house
She knock upon my door
Then she come to my room

Then she make me feel all right

G.l.o.r.i.a (Gloria)
G.l.o.r.i.a (Gloria)
I'm gonna shout it all night (Gloria)
I’m gonna shout it every day (Gloria)   
Yeah yeah yeah yeah yeah

Solo (X6)  E...
        
Song Info  |  Tab (pdf)  |  Rate  | 
 
  Previous Song  Previous | Next  Next Song