+
- 
My Guitar Songbook
Good Afternoon  |  Sign In 
Free Fallin 

Free Fallin - Tom Petty
  Artist: Tom Petty
 Audio Src: willc's Music Library
 Rated: ( 3 )  | 

Capo 3rd Fret - 4/4 Time

Intro:
-----

D  Dsus4 [Dsus4  D]  A  (2 times)


Verse 1:
-------

D            Dsus4 [Dsus4  D]     A
She's a good girl, loves her    mama

D            Dsus4 [Dsus4  D]     A
Loves Je....sus and America      too

D            Dsus4 [Dsus4  D]     A
She's a good  girl, crazy 'bout  Elvis

D            Dsus4     [Dsus4  D]  A
Loves hor...ses and her boyfriend too

D            Dsus4     [Dsus4  D]  A
...  ...  ... ...  ... .... ... ... .


Verse 2:
-------

D         Dsus4 [Dsus4  D]  A
It's a long day living in Reseda

D            Dsus4            [Dsus4  D]  A
There's a free...way runnin' through the yard

D            Dsus4            [Dsus4  D]  A
And I'm a bad   boy 'cos I don't even miss her

D         Dsus4      [Dsus4  D]      A
I'm a bad   boy for breakin' her   heart


Chorus:
------

D         Dsus4 [Dsus4  D]  A
And I'm free,

D         Dsus4 [Dsus4  D]  A
free fallin'

D         Dsus4 [Dsus4  D]  A
Yeah I'm free,

D         Dsus4 [Dsus4  D]  A
free fallin'       


Verse 3:
-------

All the vampires walkin' through the valley
Move west down Ventura Boulevard
And all the bad boys are standing in the shadows
All the good girls are home with broken hearts

Chorus:
------

And I'm free, 
free fallin'
Yeah I'm free, 
free fallin'


Bridge:
------

   D     Dsus4      Dsus4  D A
    _   _   _   _     _   _     _   _ 
   | | | | | | | |   | | | | | | | | |
e|-----------------|-------2-----------|
B|-----------------|-------3-----------|
G|-----------------|-------2-----------|
D|-----------------|---------4-4-2-0-2-|
A|-----------------|-------------------|
E|-----------------|-------------------|

D         Dsus4 [Dsus4  D]     A
Free fallin', now I'm a, 
D         Dsus4 [Dsus4  D]     A
free fallin', now I'm a

   D     Dsus4      Dsus4  D A
    _   _   _   _     _   _     _   _ 
   | | | | | | | |   | | | | | | | | |
e|-----------------|-------2-----------|
B|-----------------|-------3-----------|
G|-----------------|-------2-----------|
D|-----------------|---------4-4-2-0-2-|
A|-----------------|-------------------|
E|-----------------|-------------------|

D         Dsus4 [Dsus4  D]     A
Free fallin', now I'm a, 
D         Dsus4 [Dsus4  D]     A
free fallin', now I'm a


Verse 4:
-------

I wanna glide down over Mulholland
I wanna write her name in the sky
Gonna free fall out into nothin'
Gonna leave this world for a while


Chorus:
------

And I'm free, 
free fallin'
Yeah I'm free, 
free fallin'


Outro:
-----

   D     Dsus4      Dsus4  D A
    _   _   _   _     _   _   _   _ 
   | | | | | | | |   | | | | | | | |
e|-----------------|-----------------|
B|-----------------|-----------------|
G|-----------------|-----------------|
D|-7-7-7-----------|-7-7-7-----------|
A|-5-5-5-5-5-5-5-5-|-5-5-5-7-7-7-7-7-|
E|-------3-3-3-3-3-|-------5-5-5-5-5-|

And I'm free, free fallin'
Yeah I'm free, free fallin'
Top
 
Previous Song  Previous | Next  Next Song