My Guitar Songbook
Good Morning  |  Sign In 
Every Breath you Take (Fingerstyle) 

Song Info  |  Tutorial  |  Tab  |  Rate
Every Breath you Take (Fingerstyle) - The Police ( 3 )
 Capo 1st Fret - 4/4 Time
 Audio File From: willc's Music Library

Intro:
-----

   G+9                                 Em+9
    _   _   _   _     _   _   _   _     _   _   _   _     _   _   _   _
   | | | | | | | |   | | | | | | | |   | | | | | | | |   | | | | | | | |
e|-----------------|-----------------|-----------------|-----------------|
B|---------0-------|---------0-------|-----------------|-----------------|
G|-----2-----2---2-|-----2-----2---2-|---------0-------|---------0-------|
D|---0---0-----0---|---0---0-----0---|-----4-----4---4-|-----4-----4---4-|
A|-----------------|-----------------|---2---2-----2---|---2---2-----2---|
E|-3---------------|-3---------------|-0---------------|-0---------------|

   C+9               D+9               G+9
    _   _   _   _     _   _   _   _     _   _   _   _ 
   | | | | | | | |   | | | | | | | |   | | | | | | | |
e|-----------------|-----0-----------|-----------------|
B|-----3---1-------|---------3-------|---------0-------|
G|---0---0---0---0-|---2---2---2---2-|-----2-----2---2-|
D|-----------------|-0-----------0---|---0---0-----0---|
A|-3-----------3---|-----------------|-----------------|
E|-----------------|-----------------|-3---------------|


Verse 1:
-------
                     G+9                                 Em+9
    _   _   _   _     _   _   _   _     _   _   _   _     _   _   _   _
   | | | | | | | |   | | | | | | | |   | | | | | | | |   | | | | | | | |
e|-----------------|-----------------|-----------------|-----------------|
B|-----0h1p0-----0-|---------0-------|-----0h1p0-------|-----------------|
G|-----------2p0---|-----2-----2---2-|-----------2p0-0-|---------0-------|
D|---0-------------|---0---0-----0---|---0-------------|-----4-----4---4-|
A|-----------------|-----------------|-----------------|---2---2-----2---|
E|-3---------------|-3---------------|-3---------------|-0---------------|
1.Every breath you take,                every move you   make

                     C                 D                 Em+9
        _   _   _         _   _   _     _   _   _         _   _   _   _
    |  | | | | | |    |  | | | | | |   | | | | | |  |    | | | | | | | |
e|-----------------|-----------------|-----------------|-----------------|
B|---------0-0h1---|---------0h1-0---|-----------------|-----------------|
G|-----0-0-------0-|-----0-0-------2-|---2-0-4p0-0--0--|---------0-------|
D|-----------------|-----------------|-0---------------|-----4-----4---4-|
A|-----------------|--3--------------|-----------------|---2---2-----2---|
E|--0--------------|-----------------|-----------------|-0---------------|
1.Every bond you break every step you take  I'll be watching you


Verse 2:
-------
                     G+9                                 Em+9
    _   _   _   _     _   _   _   _     _   _   _   _     _   _   _   _
   | | | | | | | |   | | | | | | | |   | | | | | | | |   | | | | | | | |
e|-----------------|-----------------|-----------------|-----------------|
B|-----0h1p0-----0-|---------0-------|-----0h1p0-------|-----------------|
G|-----------2p0---|-----2-----2---2-|-----------2p0-0-|---------0-------|
D|-----------------|---0---0-----0---|---0-------------|-----4-----4---4-|
A|---2-------------|-----------------|-----------------|---2---2-----2---|
E|-0---------------|-3---------------|-3---------------|-0---------------|
2.Every single day,                     every word you   say

                     C+9               D                 G+9
        _   _   _         _   _   _     _   _   _         _   _   _   _
    |  | | | | | |    |  | | | | | |   | | | | | |  |    | | | | | | | |
e|-----------------|-----------------|-----------------|-----------------|
B|---------0-0h1---|---------0h1-0---|-----------------|-----------------|
G|-----0-0-------0-|-----0-0-------2-|---2-0-4p0-0--0--|---------0-------|
D|-----------------|-----------------|-0---------------|-----4-----4---4-|
A|-----------------|--3--------------|-----------------|---2---2-----2---|
E|--0--------------|-----------------|-----------------|-0---------------|
2.Every game you play  every night you stay I'll be watching you


Chorus:
------

   G                 C                 C                 G+9
    _   _   _   _     _   _   _   _         _   _   _     _   _   _   _
   | | | | | | | |   | | | | | | | |   |   | | | | | |   | | | | | | | |
e|-----------------|---0-------------|-----0-0---------|-----------------|
B|---------0---3p1-|---------1-------|---------3-----0-|---------0-------|
G|-----0-----------|-----0-----0---0-|-----------0-----|-----2-----2---0-|
D|---0---0---0-----|-------2-----2---|-----------------|---0---0-----0---|
A|-----------------|-3---------------|-3---3---3---3---|-----------------|
E|-3---------------|-----------------|-----------------|-3---------------|
     Oh can't you   see,               you belong to me 

                    A7                 D                 D
    _   _   _         _   _   _   _     _   _ _     _     _   _   _   _ 
   | | | | | |  |    | | | | | | | |   | | | | | | | |   | | | | | | | |
e|-----3-0-3(3)-3--|-3p0-------------|-----3s5-5-------|-----0-----------|
B|-----------------|---------0-------|-----------5b3-3-|---------3-------|
G|-----------------|-----2-----2---2-|---2-------------|---2-------2---2-|
D|---0-------------|-------2-----2---|-0---------------|-0-----0-----0---|
A|-----------------|-----------------|-----------------|-----------------|
E|-3---------------|-----------------|-----------------|-----------------|
 How my poor heart aches, with every step you  take         Every move you


Verse 3:
-------
                     G+9                                 Em+9
    _   _   _   _     _   _   _   _     _   _   _   _     _   _   _   _
   | | | | | | | |   | | | | | | | |   | | | | | | | |   | | | | | | | |
e|-----------------|-----------------|-----------------|-----------------|
B|-----0h1-0-----0-|---------0-------|-----0h1p0-------|-----------------|
G|---2-------2p0---|-----2-----2---2-|-----------2p0-0-|---------0-------|
D|-0---------------|---0---0-----0---|---0-------------|-----4-----4---4-|
A|-----------------|-----------------|-----------------|---2---2-----2---|
E|-----------------|-3---------------|-3---------------|-0---------------|
  make           every vow you         break               Every smile you

                     C                 D                 Em+9
        _   _   _         _   _   _     _   _   _         _   _   _   _
    |  | | | | | |    |  | | | | | |   | | | | | |  |    | | | | | | | |
e|-----------------|-----------------|-----------------|-----------------|
B|---------0-0h1---|---------0h1-0---|-----------------|-----------------|
G|-----0-0-------0-|-----0-0-------2-|---2-0-4p0-0--0--|---------0-------|
D|-----------------|-----------------|-0---------------|-----4-----4---4-|
A|-----------------|--3--------------|-----------------|---2---2-----2---|
E|--0--------------|-----------------|-----------------|-0---------------|
  fake every claim you stake I'll be watching you

    _   _   _   _
   | | | | | | | |
e|-----------------|
B|-----------------|
G|---------0-------|
D|-----4-----4---4-|
A|---2---2-----2---|
E|-0---------------|


Bridge:  (From: Guitar Pro - Police - Every Breath You Take (2).gpx4)
------

   Eb                Ebsus2            F
    _   _   _   _     _   _   _         _   _   _   _     _   _   _   _
   | | | | | | | |   | | | | | |  |    | | | | | | | |   | | | | | | | |
e|-----------------|-----------------|---1-1-1-------1-|-------1---1---1-|
B|---8-8-8---6-6-6-|---6-------6--8--|-----1-----3-1---|---3-----1-------|
G|-----------------|-------8---------|-------------2---|-----2-------2---|
D|-----8-------8---|-----8--------8--|-3-------3-------|-3---------------|
A|-6-------6-------|-6-------6-------|-----------------|-----------------|
E|-----------------|-----------------|-----------------|-----------------|
Since...gone I've been lost...a trace I dream at night...only see your face

   Ebsus2            Ebsus2            F
    _   _       _     _   _   _   _     _   _       _         _       _
   | | | |  |  | |   | | | | | | | |   | | | |  |  | |   |   | |  |  | |
e|-----------------|-----------------|-----1----1------|-1-----1-----1-1-|
B|---6-8-6--8--6-6-|---6---8---6-----|---1---1-----3-1-|-----3-------1---|
G|-----------------|---------------5-|-----2-------2---|-----2-----------|
D|-----8-------8---|-----8-------8---|-3--------3------|-3--------3------|
A|-6--------6------|-6-------6-------|-----------------|-----------------|
E|-----------------|-----------------|-----------------|-----------------|
I look around but it's you I can't replace. I feel so cold and I ...embrace

   Ebsus2
    _   _   _   _     _   _   _   _ 
   | | | | | | | |   | | | | | | | |
e|-----------------|-----------------|
B|-----6---6-------|-----6---6---6-8-|
G|---8---8---8---8-|---8---8---8-----|
D|-----8-------8---|-----8-----------|
A|-6-------6-------|-6-------6-------|
E|-----------------|-----------------|
I keep crying         baby baby please.....


Solo:
----

   G+9                                 Em+9
    _   _   _   _     _   _   _   _     _   _   _   _     _   _   _   _
   | | | | | | | |   | | | | | | | |   | | | | | | | |   | | | | | | | |
e|-----------------|-----------------|-----------------|-----------------|
B|---------0-------|---------0-------|-----------------|-----------------|
G|-----2-----2---2-|-----2-----2---2-|---------0-------|---------0-------|
D|---0---0-----0---|---0---0-----0---|-----4-----4---4-|-----4-----4---4-|
A|-----------------|-----------------|---2---2-----2---|---2---2-----2---|
E|-3---------------|-3---------------|-0---------------|-0---------------|

   C+9               D+9               Em+9
    _   _   _   _     _   _   _   _     _   _   _   _     _   _   _   _
   | | | | | | | |   | | | | | | | |   | | | | | | | |   | | | | | | | |
e|-----------------|-----0-----------|-----------------|-----------------|
B|-----3---1-------|---------3-------|-----------------|-----------------|
G|---0---0---0---0-|---2---2---2---2-|---------0-------|---------0-------|
D|-----------------|-0-----------0---|-----4-----4---4-|-----4-----4---4-|
A|-3-----------3---|-----------------|---2---2-----2---|---2---2-----2---|
E|-----------------|-----------------|-0---------------|-0---------------|

   G+9                                 Em+9
    _   _   _   _     _   _   _   _     _   _   _   _     _   _   _   _
   | | | | | | | |   | | | | | | | |   | | | | | | | |   | | | | | | | |
e|-----------------|-----------------|-----------------|-----------------|
B|---------0-------|---------0-------|-----------------|-----------------|
G|-----2-----2---2-|-----2-----2---2-|---------0-------|---------0-------|
D|---0---0-----0---|---0---0-----0---|-----4-----4---4-|-----4-----4---4-|
A|-----------------|-----------------|---2---2-----2---|---2---2-----2---|
E|-3---------------|-3---------------|-0---------------|-0---------------|

   C+9               D+9               G+9
    _   _   _   _     _   _   _   _     _   _   _   _     _   _   _   _
   | | | | | | | |   | | | | | | | |   | | | | | | | |   | | | | | | | |
e|-----------------|-----0-----------|-----------------|-----------------|
B|-----3---1-------|---------3-------|---------0-------|---------0-------|
G|---0---0---0---0-|---2---2---2---2-|-----2-----2---2-|-----2-----2---2-|
D|-----------------|-0-----------0---|---0---0-----0---|---0---0-----0---|
A|-3-----------3---|-----------------|-----------------|-----------------|
E|-----------------|-----------------|-3---------------|-3---------------|


Chorus:
------

   G                 C                 C                 G+9
    _   _   _   _     _   _   _   _         _   _   _     _   _   _   _
   | | | | | | | |   | | | | | | | |   |   | | | | | |   | | | | | | | |
e|-----------------|---0-------------|-----0-0---------|-----------------|
B|---------0---3p1-|---------1-------|---------3-----0-|---------0-------|
G|-----0-----------|-----0-----0---0-|-----------0-----|-----2-----2---0-|
D|---0---0---0-----|-------2-----2---|-----------------|---0---0-----0---|
A|-----------------|-3---------------|-3---3---3---3---|-----------------|
E|-3---------------|-----------------|-----------------|-3---------------|
     Oh can't you   see,               you belong to me 

                    A7                 D                 D
    _   _   _         _   _   _   _     _   _ _     _     _   _   _   _ 
   | | | | | |  |    | | | | | | | |   | | | | | | | |   | | | | | | | |
e|-----3-0-3(3)-3--|-3p0-------------|-----3s5-5-------|-----0-----------|
B|-----------------|---------0-------|-----------5b3-3-|---------3-------|
G|-----------------|-----2-----2---2-|---2-------------|---2-------2---2-|
D|---0-------------|-------2-----2---|-0---------------|-0-----0-----0---|
A|-----------------|-----------------|-----------------|-----------------|
E|-3---------------|-----------------|-----------------|-----------------|
 How my poor heart aches, with every step you  take         Every move you


               G+9  G+9             Em+9  Em+9
Every move you make  every vow you break
               C+9                  D+9                    Em+9  Em+9
Every smile you fake every claim you stake I'll be watching you
               C+9                  D+9        Em+9, Em+9, Em+9, Em+9
Every move you make every step you take I'll be watching you                  


Outro:
-----

I'll be watching you
 G+9                   G+9            
(Every breath you take every move you make)
 Em+9                 Em+9
(Every bond you break every step you take)


I'll be watching you
(Every single day every word you say)
(Every game you play every night you stay)
                            
I'll be watching you
(Every move you make and every vow you break)
(Every smile you fake every claim you stake)

I'll be watching you
(Every single day every word you say)
(Every game you play every night you stay)

I'll be watching you
(Every breath you take every move you make)
(Every bond you break every step you take)

I'll be watching you
(Every single day every word you say)
(Every game you play every night you stay)
                            
I'll be watching you (fade out...)
        
Song Info  |  Tutorial  |  Tab (pdf)  |  Rate  | 
 
  Previous Song  Previous | Next  Next Song