+
- 
My Guitar Songbook
Good Evening  |  Sign In 
Day Tripper 

Day Tripper - The Beatles
  Artist: The Beatles
 Audio Src: willc's Music Library
 Rated: ( 3 )  | 

Standard Tuning - 4/4 Time

Intro:
-----
    _   _   _   _     _   _   _   _ 
   | | | | | | | |   | | | | | | | |
e|-----------------|-----------------|
B|-----------------|-----------------|
G|-----------------|-----------------| (5 times)
D|-------------2-0-|(0)----4-----0-2-|
A|-----------2-----|-----2-----2-----|
E|-0---3---4-------|-----------------|


Verse 1:
-------

   E
    _   _   _   _     _   _   _   _ 
   | | | | | | | |   | | | | | | | |
e|-----------------|-----------------|
B|-----------------|-----------------|
G|-----------------|-----------------|
D|-------------2-0-|(0)----4-----0-2-|
A|-----------2-----|-----2-----2-----|
E|-0---3---4-------|-----------------| 
  Got a good reason

   E
    _   _   _   _     _   _   _   _ 
   | | | | | | | |   | | | | | | | |
e|-----------------|-----------------|
B|-----------------|-----------------|
G|-----------------|-----------------|
D|-------------2-0-|(0)----4-----0-2-|
A|-----------2-----|-----2-----2-----|
E|-0---3---4-------|-----------------| 
   For taking the easy way out

   A7
    _   _   _   _     _   _   _   _ 
   | | | | | | | |   | | | | | | | |
e|-----------------|-----------------|
B|-----------------|-----------------|
G|-------------2-0-|(0)----4-----0-2-|
D|-----------2-----|-----2-----2-----|
A|-0---3---4-------|-----------------|
E|-----------------|-----------------|
   Got a good reason

   E
    _   _   _   _     _   _   _   _ 
   | | | | | | | |   | | | | | | | |
e|-----------------|-----------------|
B|-----------------|-----------------|
G|-----------------|-----------------|
D|-------------2-0-|(0)----4-----0-2-|
A|-----------2-----|-----2-----2-----|
E|-0---3---4-------|-----------------| 
   For taking the easy way out now


Chorus:
------
           F#7    '     '             '
She was a day tripper, one way ticket yeah!
            A7    G#7
It took me so-o long
         C#7              B7  
To find out, and I found out.


Instrumental:
------------
    _   _   _   _     _   _   _   _ 
   | | | | | | | |   | | | | | | | |
e|-----------------|-----------------|
B|-----------------|-----------------|
G|-----------------|-----------------| (3 times)
D|-------------2-0-|(0)----4-----0-2-|
A|-----------2-----|-----2-----2-----|
E|-0---3---4-------|-----------------|


Verse 2:
-------

She's a big teaser
She took me half the way there
She's a big teaser
She took me half the way there

Chorus


Solo/Bridge:
-----------
    _   _   _   _     _   _   _   _ 
   | | | | | | | |   | | | | | | | |
e|-----------------|-----------------|
B|-----------------|-----------------|
G|-----------------|-----------------| (3 times)
D|-------------9-7-|(7)---11-----7-9-|
A|-9---------9-----|-----9-----9-----|
E|-7--10h-11-------|-----------------|
    _   _   _   _      _   _   _   _ 
   | | | | | | | |    | | | | | | | |
e|------------------|-----5-----------|
B|---------3b--3-5b-|(5b)-----5r-(5)--|
G|-4---4-----4------|-----------------|
D|------------------|-----------------|
A|------------------|-----------------|
E|------------------|-----------------|
    _   _   _   _      _   _   _   __ 
   | | | | | | | |    | | | | | | |  |
e|--------10--10-12-|-12b-12--10--------|
B|12--12----12------|-------------12-12-|
G|------------------|-------------------|
D|------------------|-------------------|
A|------------------|-------------------|
E|------------------|-------------------|
    _   _   _   _     _   _   _   _
   | | | | | | | |   | | | | | | | |
e|-----------------|-----------------|
B|-0-0-0-0-0-0-0-0-|-0-0-0-0-0-0-0-0-|
G|-4-4-4-4-4-4-4-4-|-4-4-4-4-4-4-4-4-|
D|-----------------|-----------------|
A|-----------------|-----------------|
E|-----------------|-----------------|


Instrumental:
------------
    _   _   _   _     _   _   _   _ 
   | | | | | | | |   | | | | | | | |
e|-----------------|-----------------|
B|-----------------|-----------------|
G|-----------------|-----------------| (2 times)
D|-------------2-0-|(0)----4-----0-2-|
A|-----------2-----|-----2-----2-----|
E|-0---3---4-------|-----------------|


Verse 3:
-------

Tried to please her
She only played one last hand
Tried to please her
She only played one last hand

Chorus

Outro:
-----
    _   _   _   _     _   _   _   _ 
   | | | | | | | |   | | | | | | | |
e|-----------------|-----------------|
B|-----------------|-----------------|
G|-----------------|-----------------| (4 times)
D|-------------2-0-|(0)----4-----0-2-|
A|-----------2-----|-----2-----2-----|
E|-0---3---4-------|-----------------|
    _   _   _   _     _   _   _   _ 
   | | | | | | | |   | | | | | | | |
e|-----------------|-----------------|
B|-----------------|-----------------|
G|-----------------|-----------------|
D|-------------2-0-|(0)----4-----0-2-|
A|-----------2-----|-----2-----2-----|
E|-0---3---4-------|-----------------|
         Day tripper
    _   _   _   _     _   _   _   _ 
   | | | | | | | |   | | | | | | | |
e|-----------------|-----------------|
B|-----------------|-----------------|
G|-----------------|-----------------|
D|-------------2-0-|(0)----4-----0-2-|
A|-----------2-----|-----2-----2-----|
E|-0---3---4-------|-----------------|
         Day tripper yeah

Day tripper, one way tripper
And I, I found out.
Day tripper, one way tripper
And I, I found out.
Day tripper, one way tripper
And I, I found out.
Day tripper, one way tripper
And I, I found out.
Day tripper, one way tripper
And I, I found out 
Top
 
Previous Song  Previous | Next  Next Song