+
- 
My Guitar Songbook
Good Evening  |  Sign In 
Bring It On Home To Me  

Info  |  Tab  |  Rate It  |  Share
Bring It On Home To Me - Van Morrison
  Artist: Van Morrison
 Audio Src: willc's Music Library
 Rated: ( 3 )  | 

Standard Tuning - 4/4 Time

Suggested Picking Pattern:
-------------------------
    _   _   _   _
   | | | | | | | |
e|-------*---------|
B|-----*---*-------|
G|---*-------*---*-|
D|-*-----------*---|
A|-*-----------*---|
E|-*-----------*---|
   |           |
  Root note of the chord

Examples:
--------
   A                  E                   D
    _   _   _   _      _   _   _   _       _   _   _   _
   | | | | | | | |    | | | | | | | |     | | | | | | | |
e|-------0---------| |------0---------| |-------2---------|
B|-----2---2-------| |----0---0-------| |-----3---3-------|
G|---2-------2---2-| |--1-------1---1-| |---2-------2---2-|
D|-----------------| |------------2---| |-0-----------0---|
A|-0-----------0---| |----------------| |-----------------|
E|-----------------| |-0--------------| |-----------------|


Intro: A (times 4)


       A   '             E   '
If you ever change your mind
      A        '           D     '
About leaving, leaving me behind
    A              '                 E
Oh, bring it to me, bring your sweet loving
E                  A   D  A  E
Bring it on home to me, oh yeah


You know I laughed, when you left
But now I know I've only hurt myself
Oh, bring it to me, bring your sweet loving
Bring it on home to me, yeah, yeah, yeah


I'll give you jewelry, money too
and that's not all, all I'll do for you
Oh, bring it to me, bring your sweet loving
Bring it on home to me, yeah, yeah, yeah


God knows I've tried to treat you right
But you stayed out, stayed out all night
Oh, bring it to me, bring your sweet loving
Bring it on home to me


Solo: (one verse)


You know I'll always be your slave
Until I'm dead and buried in my grave
Oh, bring it to me, bring your sweet loving
Bring it on home to me, yeah, yeah, yeah


If you ever change your mind
About leaving, leaving me behind
Oh, bring it to me, bring your sweet loving
Bring it on home to me, yeah, yeah, yeah
Top
 
Previous Song  Previous | Next  Next Song