A +
A - 


Top
My Guitar Songbook
Good Evening  |  Sign In 
Blackbird  
  Info  |  Tab (PDF)  |  Rate  |  Share
Blackbird - The Beatles     mp3
 Song Info
  Artist: The Beatles
  Audio File & Tab from: willc
 Rated: ( 3 ) |

 

Standard Tuning - 3/4, 4/4, 2/4 Time
Intro:
-----
    _   _   _     _   _   _       _   _   _
   | | | | | |   | | | | | | |   | | | | | | |
e|-------------|---------------|---------------|
B|-0---1---3---|-12--------12--|-12--------12--|
G|---0---0---0-|-------0-------|-------0-------| (2 times)
D|-------------|-----0-------0-|-----0-------0-|
A|-----0---2---|-10------10----|-10------10----|
E|-3-----------|---------------|---------------|

Melody:
------
    _   _   _     _   _   _       _   _   _
   | | | | | |   | | | | | | |   | | | | | | |
e|-------------|---------------|---------------|
B|-0---1---3---|-12--------12--|-12--------12--|
G|---0---0---0-|-------0-------|-------0-------|
D|-------------|-----0-------0-|-----0-------0-|
A|-----0---2---|-10------10----|-10------10----|
E|-3-----------|---------------|---------------|
   Blackbird...  night

    _   _   _   _     _   _   _       _   _   _ 
   | | | | | | | |   | | | | | | |   | | | | | | |
e|-0---3---2---5---|-3---------3---|-3---------3---|
B|-----------------|-------0-------|-------0-------|
G|---0---0---0---0-|-----0-------0-|-----0-------0-|
D|---------0-------|-2-------2-----|-1-------1-----|
A|-3---4-------6---|---------------|---------------|
E|-----------------|---------------|---------------|
  Take these...     fly

    _       _   _   _       _   _   _
   | | |   | | | | | | |   | | | | | | | 
e|-2---3-|---------------|---------------|
B|-------|-5---------5---|-4---------4---|
G|-------|-------0-------|-------0-------|
D|-0-----|-----5-------5-|-----5-------5-|
A|-----4-|-3-------3-----|-3-------3-----|
E|-------|---------------|---------------|
  All your   life

    _   _   _       _   _   _       _   _   _         _   _
   | | | | | | |   | | | | | | |   | | | | | | |   | | | | | |
e|---------------|---------------|---------------|-------------|
B|-3---------3---|-2---------2---|-1---------1---|-0-------0---|
G|-------0-------|-------0-------|-------0-------|-----0-------|
D|-----0-------0-|-----2-------2-|-----2-------2-|---0-------0-|
A|-2-------2-----|-0-------0-----|-0-------0-----|-------------|
E|---------------|---------------|---------------|-3-----3-----|
   You were only     waiting for this  moment to         arise

    _   _     _   _   _       _   _   _       _   _   _
   | | | |   | | | | | | |   | | | | | | |   | | | | | | | 
e|---------|---------------|---------------|---------------|
B|-5---3---|-2---------2---|-1---------1---|-0---------0---|
G|---0---0-|-------0-------|-------0-------|-------0-------|
D|---------|-----2-------2-|-----2-------2-|-----0-------0-|
A|-3---2---|-0-------0-----|-0-------0-----|---------------|
E|---------|---------------|---------------|-3-------3-----|

    _   _   _   _     _   _   _       _   _   _       _   _   _   _
   | | | | | | | |   | | | | | | |   | | | | | | |   | | | | | | | |
e|-----------------|---------------|---------------|-----------------|
B|-10--8---6---5---|-3---------3---|-5---------5---|-10--8---6---5---|
G|---0---0---0---0-|-------0-------|-------0-------|---0---0---0---0-|
D|-----------------|-----3-------3-|-----5-------3-|-----------------|
A|-8---7---5---3---|-1-------1-----|-3-------3-----|-8---7---5---3---|
E|-----------------|---------------|---------------|-----------------|
   Blackbird         fly                                 Blackbird

      _   _       _   _   _       _   _   _       _   _   _
   | | | | | |   | | | | | | |   | | | | | | |   | | | | | | |
e|-------------|---------------|---------------|---------------|
B|-3-------3---|-2---------2---|-1---------1---|-0---------0---|
G|-----0-------|-------0-------|-------0-------|-------0-------|
D|---3-------3-|-----2-------2-|-----2-------2-|-----0-------0-|
A|-1-----1-----|-0-------0-----|-0-------0-----|---------------|
E|-------------|---------------|---------------|-3-------3-----|
   fly               Into the light of a dark black night

    _   _     _   _   _       _   _   _       _   _   _
   | | | |   | | | | | | |   | | | | | | |   | | | | | | | 
e|---------|---------------|---------------|---------------|
B|-5---3---|-2---------2---|-1---------1---|-0---------0---|
G|---0---0-|-------0-------|-------0-------|-------0-------|
D|---------|-----2-------2-|-----2-------2-|-----0-------0-|
A|-3---2---|-0-------0-----|-0-------0-----|---------------|
E|---------|---------------|---------------|-3-------3-----|

    _   _     _   _   _       _   _   _
   | | | |   | | | | | | |   | | | | | | |   | | | |
e|---------|---------------|---------------|---------|
B|-5---3---|-2---------2---|-1---------1---|-0-------|
G|---0---0-|-------0-------|-------0-------|---------|
D|---------|-----2-------2-|-----2-------2-|---------|
A|-3---2---|-0-------0-----|-0-------0-----|---------|
E|---------|---------------|---------------|-3-------|

Solo: (1 verse)

Blackbird fly, Blackbird fly
Into the light of a dark black night

    _   _   _     _   _   _       _   _   _       _   _   _
   | | | | | |   | | | | | | |   | | | | | | |   | | | | | | |
e|-------------|---------------|---------------|---------------|
B|-0---1---3---|-12--------12--|-12--------12--|-12--------12--|
G|---0---0---0-|-------0-------|-------0-------|-------0-------|
D|-------------|-----0-------0-|-----0-------0-|-----0-------0-|
A|-----0---2---|-10------10----|-10------10----|-10------10----|
E|-3-----------|---------------|---------------|---------------|

                         _   _   _   _     _   _   _   _
   | | | |   | | | |    | | | | | | | |   | | | | | | | |
e|---------|----------|-----------------|-----------------|
B|-12--12--|----------|-0---1---3---5---|-3---2---1---0---|
G|---------|----------|---0---0---0---0-|---0---0---0---0-|
D|---0-----|----------|-----------------|-----------------|
A|-10--10--|----------|-----0---2---0---|-2---0---0-------|
E|---------|-14-slide-|-3---------------|-------------3---|

Blackbird singing in the dead of night
Take these broken wings and learn to fly
All your life,
You were only waiting for this moment to arise

    _   _   _   _     _   _   _   _     _   _   _   _     _   _   _
   | | | | | | | |   | | | | | | | |   | | | | | | | |   | | | | | | |
e|-----------------|-----------------|-----------------|---------------|
B|-0---1---3---5---|-3---2---1---0---|-0---1---3---5---|-3---2---1---0-|
G|---0---0---0---0-|---0---0---0---0-|---0---0---0---0-|---0---0---0---|
D|-----------------|-----------------|-----------------|---------------|
A|-----0---2---0---|-2---0---0-------|-----0---2---0---|-2---0---0-----|
E|-3---------------|-------------3---|-3---------------|-------------3-|

You were only waiting for this moment to arise
You were only waiting for this moment to arise

:·..·:·..·:·..·:·..·:

Blackbird - The Beatles (Lyrics)
-----------------------

Intro

Blackbird singing in the dead of night
Take these broken wings and learn to fly
All your life,
You were only waiting for this moment to arise

Blackbird singing in the dead of night
Take these sunken eyes and learn to see
All your life,
You were only waiting for this moment to be free

Blackbird fly, Blackbird fly
Into the light of a dark black night

Solo: (1 verse)

Blackbird fly, Blackbird fly
Into the light of a dark black night

Instrumental

Blackbird singing in the dead of night
Take these broken wings and learn to fly
All your life,
You were only waiting for this moment to arise

You were only waiting for this moment to arise
You were only waiting for this moment to arise
Previous Song  Previous | Next  Next Song