+
- 
My Guitar Songbook
Good Morning  |  Sign In 
Licks played in the key of A  

Info  |  Tutorial  |  Tab  |  Rate It  |  Share
Licks played in the key of A - Robert Renman
 Arranged By: Robert Renman
 Audio From: Tutorial
 Rated: ( 2 )  | 

Key A - 4/4 Time

Key A:
-----

Lick 1
------
    _   _          __   _   _   _
   | | | | |  |   |  | | | | | | |
e|-----5-5-7b---|-7b-7-5-------5-5-|
B|-5-7----------|--------7-5-7-----|
G|--------------|------------------|
D|--------------|------------------|
A|--------------|------------------|
E|--------------|------------------|

Lick 2
------
    __   __   _   _
   |  | |  | | | | |  |
e|----------------------|
B|------5-s8-7-5-7------|
G|---s6------------6b---|
D|-7------------------7-|
A|----------------------|
E|----------------------|

    _    _   __   _    __   _
   | |  | | |  | | |  |  | | |
e|-----------------------------|
B|-----------------------------|
G|---7p-6-7-9-s6-----s9-s7-5---|
D|-7-------------7-7---------7-|
A|-----------------------------|
E|-----------------------------|


*:·..·:*¨¨*:·..·:*¨¨*:·..·:*


Lick 2 (higher up on the neck)
------
    ___    ___    __    __ 
   |   |  |   |  |  |  |  |   |
e|-------12-s15-14-12-14--------|
B|---s14-----------------13b----|
G|14-------------------------14-|
D|------------------------------|
A|------------------------------|
E|------------------------------|

    __     __    ___    ___    ___    ___
   |  |   |  |  |   |  |   |  |   |  |   |
e|-----------------------------------------|
B|---15p-14-15-17-s14-------s17-s15-13-----|
G|-14-----------------14--14------------14-|
D|-----------------------------------------|
A|-----------------------------------------|
E|-----------------------------------------|


*:·..·:*¨¨*:·..·:*¨¨*:·..·:*


Key E (Transposed - Original Key A):
-----

Lick 1
------
    _   _          __   _   _   _
   | | | | |  |   |  | | | | | | |
e|-----0-0-2b---|-2b-2-0-------0-0-|
B|-0-2----------|--------2-0-2-----|
G|--------------|------------------|
D|--------------|------------------|
A|--------------|------------------|
E|--------------|------------------|

Lick 2
------
    __   __   _   _
   |  | |  | | | | |  |
e|----------------------|
B|------0-s3-2-0-2------|
G|---s1------------1b---|
D|-2------------------2-|
A|----------------------|
E|----------------------|

    _    _   __   _    __   _
   | |  | | |  | | |  |  | | |
e|-----------------------------|
B|-----------------------------|
G|---2p-1-2-4-s1-----s4-s2-0---|
D|-2-------------2-2---------2-|
A|-----------------------------|
E|-----------------------------|
Top
 
Previous Lick  Previous | Next  Next Lick