+
- 
My Guitar Songbook
Good Morning  |  Sign In 
Licks played in the key of F  

Info  |  Tutorial  |  Tab  |  Rate It  |  Share
Licks played in the key of F - Robert Renman
 Arranged By: Robert Renman
 Audio Src: Tutorial
 Rated: ( 1 )  | 

Key F - 4/4 Time

Key F:
-----

Lick 1
------

  MAJOR (Box 2)                         MINOR (Box 1)
     __ ___ __    ___    __     ___      __    __
    |  |   |  |  |   |  |  |   |   |    |  |  |  |  |   |
e|-----------13-15b-13-15-----13-(13)|--------------------|
B|----13h-15--------------15---------|-16-13--------------|
G|s14--------------------------------|-------16-15-13-(13)|
D|-----------------------------------|--------------------|
A|-----------------------------------|--------------------|
E|-----------------------------------|--------------------|


Lick 2
------

MINOR (Box 4 w/chromatic passing tones)
     _ __ __ __ _    __      _    __    _    __ 
    | |  |  |  | |  |  |    | |  |  |  | |  |  |   |
e|---------------8-------|---------------8-------|-8---
B|----9-10-11-12---10----|----9-10-11-12---10----|-9---
G|-10-----------------10-|-10-----------------10-|-----
D|-----------------------|-----------------------|-----
A|-----------------------|-----------------------|-----
E|-----------------------|-----------------------|-----


*:·..·:*¨¨*:·..·:*¨¨*:·..·:*¨¨*


Key A (Transposed - Original Key F):
-----

Lick 1
------

MAJOR (Box 2)                 MINOR (Box 1)
    _ __ _   __   _   __        _   _ 
   | |  | | |  | | | |  |      | | | | |  |
e|--------5-7b-5-7---5-(5)-| |---------------|
B|---5h-7----------7-------| |-8-5-----------|
G|s6-----------------------| |-----8-7-5-(5)-|
D|-------------------------| |---------------|
A|-------------------------| |---------------|
E|-------------------------| |---------------|

Lick 2
------

MINOR (Box 4 w/chromatic passing tones)

    _   _   _   _       _   _   _   _ 
   | | | | | | | |     | | | | | | | |   |
e|-----------0-----| |-----------0-----|-0----
B|---1-2-3-4---2---| |---1-2-3-4---2---|-1----
G|-2-------------2-| |-2-------------2-|------
D|-----------------| |-----------------|------
A|-----------------| |-----------------|------
E|-----------------| |-----------------|------
Top
 
Previous Lick  Previous | Next  Next Lick