+
- 
My Guitar Songbook
Good Morning  |  Sign In 
Licks played in the key of G  

Info  |  Tutorial  |  Tab  |  Rate It  |  Share
Licks played in the key of G - Robert Renman
 Arranged By: Robert Renman
 Audio Src: Tutorial
 Rated: ( 3 )  | 

Key G - 4/4 Time

Key G:
-----

Lick 1
------

MAJOR (Box 4)
    ___ __ ___   _   _ 
   |   |  |   | | | | |  |
e|----10--------------------|
B|10b----10b-10-8---8---10b-|
G|----------------9---9-----|
D|--------------------------|
A|--------------------------|
E|--------------------------|


Lick 2
------

MINOR (Box 1)
    __ __ __ __     __ __ __ __
   |  |  |  |  |   |  |  |  |  |   |   |
e|---------15-18b-15-------15-------------|
B|15-15-17-----------15-18----------------|
G|----------------------------17b-15-(15)-|
D|----------------------------------------|
A|----------------------------------------|
E|----------------------------------------|


*:·..·:*¨¨*:·..·:*¨¨*:·..·:*¨¨*


Key A (Transposed - Original Key G):
-----

MAJOR (Box 4)

    ___ __ ___    __    __
   |   |  |   |  |  |  |  |  |
e|----12------------------------|
B|12b----12b-12-10----10----12b-|
G|-----------------11----11-----|
D|------------------------------|
A|------------------------------|
E|------------------------------|

MINOR (Box 1)

     M
    _ _ _ _    _ _ _ _ 
   | | | | |  | | | | |  |  |
e|-------5-8b-5-----5----------|
B|-5-5-7--------5-8------------|
G|--------------------7b-5-(5)-|
D|-----------------------------|
A|-----------------------------|
E|-----------------------------|
Top
 
Previous Lick  Previous | Next  Next Lick