+
- 
My Guitar Songbook
Good Evening  |  Sign In 
Fever  

Info  |  Tab  |  Rate It  |  Share
Fever - The McCoys
  Artist: The McCoys
 Audio Src: willc's Music Library
 Rated: ( 6 )  | 

Standard Tuning - 4/4 Time

Main Riff:
---------
                  _         _
             | | | |   | | | |
e|---------|---------|---------|
B|---------|---------|---------|
G|---------|---------|---------|
D|---------|---------|---------|
A|---------|-----1-1-|-----1---|
E|------10s|-3-3-----|-3-3---3-|

      _         _   _ _
   | | | |   | | | | | |
e|---------|-------------|
B|---------|-------------|
G|---------|-------------|
D|---------|-------------|
A|-5-5-----|-----5-------|
E|-----2-2-|-3-3---0-1-2-|


Verse:
-----

Gm                    Gm
Never know how much I love you.
Gm                    D
Never know how much I care.
Gm                      C
When you put your arms around me.
        D                       Gm
I get a fever that's so hard to bear 
(You give me fever).


Chorus:
------

Gm                    Gm
You give me fever, when you kiss me.
Gm                     D
Fever when you hold me tight 
(you give me fever).
Gm        C
Fever ... in the mornin.
D                     Gm
Fever all through the night.


Verse:
-----

Gm                Gm
Sun lights up the day time.
Gm                 D
Moon lights up the night.
Gm                  C
I light up when you call my name.
        D                         Gm
Cause I know you're gonna treat me right 
(You give me fever).


Chorus:
------

Gm                  Gm
You give me fever, when you kiss me.
Gm                     D
Fever when you hold me tight 
(You give me fever).
Gm        C
Fever ... in the mornin.
D                     Gm
Fever all through the night.


Lead Break...Main Riff


Verse:
-----

Gm          Gm
Everybody's got the fever.
Gm                D
That is something you all know.
Gm          C
Fever isn't such a new thing..
D                       Gm
Fever started long time ago.


Outro:
-----

Gm                 Gm
You give me fever..baby, turn on your 
Gm                 D
love light. yeah..yeah.
                Gm        D
Let it shine on me..yeah, yeah.
                         Gm
Well, baby, turn on your love light..
      D
yeah, yeah.
                    Gm        D
And let it shine on me..yeah, yeah.
                        Gm
Well, just a little bit higher..
      D
yeah, yeah.
                      Gm
And just a little bit brighter, baby. 
      D
yeah, yeah.
           D                   Gm
Whooooaaa! You give me fever..yeah, 
yeah, yeah.
D                  Gm 
You give me fever..yeah, yeah, yeah.
D                  Gm
You give me fever..yeah, yeah, yeah.
D                  Gm
You give me fever.


Bass Riff (Verses)
------------------
        _         _         _         _
   | | | |   | | | |   | | | |   | | | |
e|---------|---------|---------|---------|
B|---------|---------|---------|---------|
G|---------|---------|---------|---------|
D|---------|---------|---------|---------|
A|-----1-1-|-----1-1-|-----1-1-|-----5-5-|
E|-3-3-----|-3-3-----|-3-3-----|-3-3-----|
Never knew...I love   Never knew..I care

      _         _                   _ _ 
   | | | |   | | | |   | | | |   | | | | |
e|---------|---------|---------|-----------|
B|---------|---------|---------|-----------|
G|---------|---------|---------|-----------|
D|---------|---------|---------|-------3---|
A|-----1-1-|-3-3-1-3-|-5-------|---5-5---5-|
E|-3-3-----|---------|---------|-----------|
                      fever that's... you give..

Bass Riff (Chorus) 
------------------
      _         _         _         _ 
   | | | |   | | | |   | | | |   | | | |
e|---------|---------|---------|---------|
B|---------|---------|---------|---------|
G|---------|---------|---------|---------|
D|---------|---------|---------|---------|
A|-----3-3-|-5-5-3-1-|-----3-3-|-5-5-3-1-|
E|-3-3-----|---------|-3-3-----|---------|
(you give...) when you kiss me
      _         _         _         _ 
   | | | |   | | | |   | | | |   | | | |
e|---------|---------|---------|---------|
B|---------|---------|---------|---------|
G|---------|---------|---------|---------|
D|---------|---------|---------|---------|
A|-----3-3-|-5-5-3-1-|-----3-3-|---------|
E|-3-3-----|---------|-3-3-----|-3-1---2-|
            in the morning  fever all...
Top
 
Previous Song  Previous | Next  Next Song