+
- 
My Guitar Songbook
Good Evening  |  Sign In 
Landslide 

Landslide - Fleetwood Mac
  Artist: Fleetwood Mac
 Audio: willc's Music Library
 Rated: ( 3 )  | 

Capo 3rd Fret - 4/4 Time

Suggested Picking Pattern:
-------------------------
    _   _   _ 
   | | | | | | |
e|---------------|
B|-------*-------|
G|---*-------*---|
D|-----*-------*-|
A|-*-------*-----|
E|---------------|
   |       |
  Root note of the chord


Intro: (2 times)
-----
   C               G/B             Am7             G/B
    _   _   _       _   _   _       _   _   _       _   _   _ 
   | | | | | | |   | | | | | | |   | | | | | | |   | | | | | | |
e|---------------|---------------|---------------|---------------|
B|-------1-------|-------3-------|-------1-------|-------3-------|
G|---0-------0---|---0-------0---|---0-------0---|---0-------0---|
D|-----2-------2-|-----0-------0-|-----2-------2-|-----0-------0-|
A|-3-------3-----|-2-------2-----|-0-------0-----|-2-------2-----|
E|---------------|---------------|---------------|---------------|


Verse 1:
-------
   C               G/B             Am7             G/B
    _   _   _       _   _   _       _   _   _       _   _   _ 
   | | | | | | |   | | | | | | |   | | | | | | |   | | | | | | |
e|---------------|---------------|---------------|---------------|
B|-------1-------|-------3-------|-------1-------|-------3-------|
G|---0-------0---|---0-------0---|---0-------0---|---0-------0---|
D|-----2-------2-|-----0-------0-|-----2-------2-|-----0-------0-|
A|-3-------3-----|-2-------2-----|-0-------0-----|-2-------2-----|
E|---------------|---------------|---------------|---------------|
   I took my      love, I took it down

   C               G/B             Am7             G/B
    _   _   _       _   _   _       _   _   _       _   _   _ 
   | | | | | | |   | | | | | | |   | | | | | | |   | | | | | | |
e|---------------|---------------|---------------|---------------|
B|-------1-------|-------3-------|-------1-------|-------3-------|
G|---0-------0---|---0-------0---|---0-------0---|---0-------0---|
D|-----2-------2-|-----0-------0-|-----2-------2-|-----0-------0-|
A|-3-------3-----|-2-------2-----|-0-------0-----|-2-------2-----|
E|---------------|---------------|---------------|---------------|
   Climbed a      mountain and I turned around

   C               G/B             Am7             G/B
    _   _   _       _   _   _       _   _   _       _   _   _ 
   | | | | | | |   | | | | | | |   | | | | | | |   | | | | | | |
e|---------------|---------------|---------------|---------------|
B|-------1-------|-------3-------|-------1-------|-------3-------|
G|---0-------0---|---0-------0---|---0-------0---|---0-------0---|
D|-----2-------2-|-----0-------0-|-----2-------2-|-----0-------0-|
A|-3-------3-----|-2-------2-----|-0-------0-----|-2-------2-----|
E|---------------|---------------|---------------|---------------|
   And I saw my  reflection in the snow covered hills

   C               G/B             Am7             Am7     G/B
    _   _   _       _   _   _       _   _   _       _   _   _ 
   | | | | | | |   | | | | | | |   | | | | | | |   | | | | | | |
e|---------------|---------------|---------------|---------------|
B|-------1-------|-------3-------|-------1-------|-------1-------|
G|---0-------0---|---0-------0---|---0-------0---|---0-------0---|
D|-----2-------2-|-----0-------0-|-----2-------2-|-----2-------0-|
A|-3-------3-----|-2-------2-----|-0-------0-----|-0-------2-----|
E|---------------|---------------|---------------|---------------|
   Till the landslide brought me down 


Verse 2:
-------

    C             G/B          Am7        G/B
Oh, mirror in the sky, what is love?
        C            G/B           Am7    G/B
Can the child within my heart rise above?
      C              G/B        Am7       G/B
Can I sail through the changin ocean tides
      C          G/B            Am7       G/B
Can I handle the seasons of my  li - i - fe


Pre-Chorus:
----------

   C               G/B             Am7(*)          G/B
    _   _   _       _   _   _       _   _   _       _   _   _ 
   | | | | | | |   | | | | | | |   | | | | | | |   | | | | | | |
e|---------------|---------------|---------------|---------------|
B|-------1-------|-------3-------|-----1---1p0---|-------3-------|
G|---0-------0---|---0-------0---|-------------0-|---0-------0---|
D|-----2-------2-|-----0-------0-|-----2---2-----|-----0-------0-|
A|-3-------3-----|-2-------2-----|-0-------------|-2-------2-----|
E|---------------|---------------|---------------|---------------|

   C               G/B             Am7(*)          D/F#
    _   _   _       _   _   _       _   _   _       _   _   _ 
   | | | | | | |   | | | | | | |   | | | | | | |   | | | | | | |
e|---------------|---------------|---------------|---------------|
B|-------1-------|-------3-------|-----1---1p0---|-------3-------|
G|---0-------0---|---0-------0---|-------------0-|---2-------2---|
D|-----2-------2-|-----0-------0-|-----2---2-----|-----0-------0-|
A|-3-------3-----|-2-------2-----|-0-------------|---------0-----|
E|---------------|---------------|---------------|-2-------------|
  Mm hmm hmm hmm


Chorus:
------

   G               D/F#            Em              Em
    _   _   _       _   _   _       _   _   _       _   _   _ 
   | | | | | | |   | | | | | | |   | | | | | | |   | | | | | | |
e|---------------|---------------|---------------|---------------|
B|-------0-------|-------3-------|-------0-------|-------0-------|
G|---0-------0---|---2-------2---|---0-------0---|---0-------0---|
D|-----0-------0-|-----0-------0-|-----2-------2-|-----2-------2-|
A|---------------|---------0-----|---------------|---------------|
E|-3-------3-----|-2-------------|-0-------0-----|-0-------0-----|
Well, I've been  afraid of        changing        cause I've

   C               G/B             Am7             D/F#
    _   _   _       _   _   _       _   _   _       _   _   _ 
   | | | | | | |   | | | | | | |   | | | | | | |   | | | | | | |
e|---------------|---------------|---------------|---------------|
B|-------1-------|-------3-------|-------1-------|-------3-------|
G|---0-------0---|---0-------0---|---0-------0---|---2-------2---|
D|-----2-------2-|-----0-------0-|-----2-------2-|-----0-------0-|
A|-3-------3-----|-2-------2-----|-0-------0-----|---------0-----|
E|---------------|---------------|---------------|-2-------------|
  Built my       life         around you

   G               D/F#            Em              Em
    _   _   _       _   _   _       _   _   _       _   _   _ 
   | | | | | | |   | | | | | | |   | | | | | | |   | | | | | | |
e|---------------|---------------|---------------|---------------|
B|-------0-------|-------3-------|-------0-------|-------0-------|
G|---0-------0---|---2-------2---|---0-------0---|---0-------0---|
D|-----0-------0-|-----0-------0-|-----2-------2-|-----2-------2-|
A|---------------|---------0-----|---------------|---------------|
E|-3-------3-----|-2-------------|-0-------0-----|-0-------0-----|
But time makes you bolder,  even children get      older

   C               G/B             Am7             Am7    G/B
    _   _   _       _   _   _       _   _   _       _   _   _ 
   | | | | | | |   | | | | | | |   | | | | | | |   | | | | | | |
e|---------------|---------------|---------------|---------------|
B|-------1-------|-------3-------|-------1-------|-------1-------|
G|---0-------0---|---0-------0---|---0-------0---|---0-------0---|
D|-----2-------2-|-----0-------0-|-----2-------2-|-----2-------0-|
A|-3-------3-----|-2-------2-----|-0-------0-----|-0-------2-----|
E|---------------|---------------|---------------|---------------|
And I'm getting   older             too


Solo & Pre-Chorus: 
-----------------

C, G/B, Am7, G/B; C, G/B, Am7, G/B; 
C, G/B, Am7, G/B; C, G/B, Am7, D/F#


Chorus:
------

      G          D/F#     Em        '
Well, I've been afraid of changing cause I've
 C       G/B          Am7     D/F# 
Built my life around you
    G              D/F#          Em           '
But time makes you bolder, even children get older
    C         G/B     Am7     G/B
And I'm getting older too
    C         G/B     Am7     G/B
And I'm getting older too


Verse (1st verse):
-----------------

C      G/B                   Am7      G/B
Ah-ah, take my love, take it down
 C        G/B                Am7      G/B
Climbed a mountain and  turn around
       C        G/B             Am7          G/B
If you see my reflection in the snow covered hills
         C              G/B      Am7  G/B
Well the landslide will bring it down 


            C       G/B             Am7          G/B(stop)
And if you see my reflection in the snow covered hills
        C            G/B      Am7    G/B
Well, a landslide'll bring it down, oh-ohh
    C            G/B      Am7
The landslide'll bring it down.
 
Previous Song  Previous | Next  Next Song