+
- 
My Guitar Songbook
Good Evening  |  Sign In 
Blues Turnarounds Lick 8  

Info  |  Tutorial  |  Tab  |  Rate It  |  Share
Blues Turnarounds Lick 8 - Robert Renman
 Arranged By: Robert Renman
 Audio Src: Tutorial
 Rated: ( 3 )  | 

Key A - 4/4 Time

    __ __    __ __    __ __        _ _ 
   |  |  |  |  |  |  |  |  |  |   | | | | | |
e|12-------11-------10--------9-|-------------|
B|---10-------10-------10----10-|-------------|
G|------12-------11-------10--9-|-------7-----|
D|------------------------------|-------6-----|
A|------------------------------|-5-6-7-7-----|
E|------------------------------|-------------|


*:·..·:*¨¨*:·..·:*¨¨*:·..·:*¨¨*


Key E (Transposed - Original Key A):
-----

   E
    _ _   _ _   _ _       _ _
   | | | | | | | | | |   | | | | | |
e|-7-----6-----5-----4-|-------------|
B|---5-----5-----5---5-|-------------|
G|-----7-----6-----5-4-|-------2-----|
D|---------------------|-------1-----|
A|---------------------|-0-1-2-2-----|
E|---------------------|-------------|
Top
 
Previous Lick  Previous | Next  Next Lick