+
- 
My Guitar Songbook
Good Evening  |  Sign In 
It's All Over Now 

It's All Over Now - The Rolling Stones
  Artist: The Rolling Stones
 Audio: willc's Music Library
 Rated: ( 2 )  | 

Standard Tuning - 4/4 Time

Intro: G, F, C, D  (2 times)
-----

1st Guitar:
----------
   G           F           C           D
      _ _         _ _         _ _         _ _
   | | | | |   | | | | |   | | | | |   | | | | |
e|-----3-----|-----1-----|-----0-----|-----2-----|
B|-------3---|-------1---|-------1---|-------3---|
G|-----------|-----------|-----------|---2-----2-|
D|-----------|-----------|---2-----2-|-0---------|
A|---2-----2-|---3-----3-|-3---------|-----------|
E|-3---------|-1---------|-----------|-----------|

2nd Guitar:
----------
   G             F             C             D
      _ _         _ _         _ _         _ _
   | | | | |   | | | | |   | | | | |   | | | | |
e|-3---------|-1---------|-0---------|-2---------|
B|-3---------|-1---------|-1---------|-3---------|
G|-0---------|-2---------|-0---------|-2---------|
D|-0-------5-|-3-------3-|-2---------|-0---------|
A|-2---5h7---|-3---3h5---|-3-------3-|---------5-|
E|-3---------|-1---------|-----3h5---|-----5h7---|


Verse:
-----

     G             '         '        '
Well, baby used to stay out all night long,
     G       '       '        '
She made me cry, she done me wrong.
     G           '     '          '
She hurt my eyes open, that's no lie,
     G      '         '            '
Table's turned and now her turn to cry..


Chorus:
------
          D                 C                  G    '
Because I used to love her, but it's all over now.
          D                 C                  G    '
Because I used to love her, but it's all over now. 


Well, she used to run around with every man in town,
She spent all my money, playing her fast game.
She put me out, it was a pity how I cried,
Table's turnin' now it's her turn to cry..

Chorus

Solo: *

I used to wake in the morning, get my breakfast in bed.
When I got worried, she would ease my aching head.
But now she's here and there, with every man in town,
Still trying to take me for that same old clown.

Chorus (5 times)


*:·..·:*¨¨*:·..·:*¨¨*:·..·:*¨¨*:·..·:*¨¨*:·..·:*¨¨*:·..·:*


* Solo (HACK - something to work with):
--------------------------------------

MINOR (Box 1):
    _ _ _   _ _          _ __ _   _ _ _
   | | | | | | | | |    | |  | | | | | |
e|--------------------|-------------------|
B|-------3---3---3-5b-|-r(5)-3---3--------|
G|-5p3---3---3---3-5b-|-r(5)-3---3-5-3-5b-|
D|-----5---5---5------|--------5----------|
A|--------------------|-------------------|
E|--------------------|-------------------|
    __      __ ___    _         _ _ _  
   |  |  | |  |   |  | |   | | | | | |
e|-x--3------------------|--------------|
B|-----------------------|-----3---3-5b-|
G|(5)---5b-r-(5)p-3------|-----3---3-5b-|
D|---------------------5-|-5-5---5------|
A|-----------------------|--------------|
E|-----------------------|--------------|
    __ __ _    __ __ _     ___ _    __ __ _
   |  |  | |  |  |  | |   |   | |  |  |  | |
e|----------------------|--------------------|
B|-r-(5)-3-5b-r-(5)-----|-3---3-5b-r-(5)-----|
G|-r-(5)-3-5b-r-(5)-3---|-3---3-5b-r-(5)-3---|
D|--------------------5-|---5--------------5-|
A|----------------------|--------------------|
E|----------------------|--------------------|

MINOR (Box 2)
        _   _        __ _   _   _
   | | | | | |    | |  | | | | | |
e|-----6-8---8b-|---8p-6---6---6-8b-|
B|---8----------|--------8---8------|
G|--------------|-------------------|
D|--------------|-------------------|
A|--------------|-------------------|
E|--------------|-------------------|
             ___      __ __     _ _ _ 
   |  |  |  |   |    |  |  |   | | | | |
e|(8)-8b-8b-8b-(8)-|-8b-8p-6---6-6---x-3-|
B|-----------------|---------------8-----|
G|-----------------|---------------------|
D|-----------------|---------------------|
A|-----------------|---------------------|
E|-----------------|---------------------|
 
Previous Song  Previous | Next  Next Song