My Guitar Songbook
Good Evening  |  Sign In 
Around and Around 

Song Info  |  Tutorial  |  Tab  |  Rate
Around and Around - The Rolling Stones ( 1 )
 Standard Tuning - 4/4 Time
 Audio File From: willc's Music Library

Intro Lick:
----------
    __ _   __   __ _   __ __ 
   |  | | |  | |  | | |  |  |
e|------0----0------0-------0--|
B|-0h-2---2p---0h-2---2p-0-(0)-|
G|-----------------------------|
D|-----------------------------|
A|-----------------------------|
E|-----------------------------|

Verse 1:
-------

   A           A           D
          _           _           _ 
   | | | | |   | | | | |   | | | | |
e|-----------|-----------|-----------|
B|-----------|-----------|-----------|
G|-----------|-----------|-2-2-4-2-2-|
D|-2-2-4-2-2-|-2-2-4-2-2-|-0-0-0-0-0-|
A|-0-0-0-0-0-|-0-0-0-0-0-|-----------|
E|-----------|-----------|-----------|

   A           E           A
          _           _           _ 
   | | | | |   | | | | |   | | | | |
e|-----------|-----------|-----------|
B|-----------|-----------|-----------|
G|-----------|-----------|-----------|
D|-2-2-4-2-2-|-----------|-2-2-4-2-2-|
A|-0-0-0-0-0-|-2-2-4-2-2-|-0-0-0-0-0-|
E|-----------|-0-0-0-0-0-|-----------|

                        A
They said the joint was rockin'
                  A
Goin' 'round and 'round
                  D
Realin' and a rockin'
                  A
Oh baby, with that crazy sound
                  E
And it never stopped rockin'
                  A 
Till the moon went down


Verse 2:
-------

   A              A              D
    __   _         __   _         ___    __
   |  | | | | |   |  | | | | |   |   |  |  | | |
e|-5----5-------|-5----5-------|10-----10--------|
B|-5h-7---8-----|-5h-7---8-----|10h-12----13-----|
G|--------------|--------------|-----------------|
D|--------------|--------------|-----------------|
A|--------------|--------------|-----------------|
E|--------------|--------------|-----------------|

   A              E                 A
    __   _         ___    __         __   _
   |  | | | | |   |   |  |  | | |   |  | | | | |
e|-5----5-------|12-----12--------|-5----5-------|
B|-5h-7---8-----|12h-14----15-----|-5h-7---8-----|
G|--------------|-----------------|--------------|
D|--------------|-----------------|--------------|
A|--------------|-----------------|--------------|
E|--------------|-----------------|--------------|

                  A
You know it sounds so sweet
                  A
I gotta take me a chance
                  D
Rose out of my seat
                  A
You know I had to dance
                  E
Started movin' my feet
                  A
Oh, clappin' my hands


Verse 3:
-------

   A                     A
          _                     _
   | | | | |   | | | |   | | | | |   | | | |
e|-----------|---------|-----------|---------|
B|-----------|---------|-----------|---------|
G|-----------|---------|-----------|---------|
D|-2-2-4-2-2-|-2-2-4-2-|-2-2-4-2-2-|-2-2-4-2-|
A|-0-0-0-0-0-|-0-0-0-0-|-0-0-0-0-0-|-0-0-0-0-|
E|-----------|---------|-----------|---------|

   D                     A
          _                     _
   | | | | |   | | | |   | | | | |   | | | |
e|-----------|---------|-----------|---------|
B|-----------|---------|-----------|---------|
G|-2-2-4-2-2-|-2-2-4-2-|-----------|---------|
D|-0-0-0-0-0-|-0-0-0-0-|-2-2-4-2-2-|-2-2-4-2-|
A|-----------|---------|-0-0-0-0-0-|-0-0-0-0-|
E|-----------|---------|-----------|---------|

   E                     A
          _                     _
   | | | | |   | | | |   | | | | |   | | | |
e|-----------|---------|-----------|---------|
B|-----------|---------|-----------|---------|
G|-----------|---------|-----------|---------|
D|-----------|---------|-2-2-4-2-2-|-2-2-4-2-|
A|-2-2-4-2-2-|-2-2-4-2-|-0-0-0-0-0-|-0-0-0-0-|
E|-0-0-0-0-0-|-0-0-0-0-|-----------|---------|

                        A
They said the joint was rockin'
                  A
Goin' 'round and 'round
                  D
Realin' and a rockin'
                  A
Oh baby, with that crazy sound
                  E
And it never stopped rockin'
                  A 
Till the moon went down


Solo:
----

   A            A            D
      _ __           __           __ 
   | | |  | |   | | |  | |   | | |  | |
e|-5--------5-|-5--------5-|-5--------5-|
B|-5-7------5-|-5--------5-|-5--------5-|
G|---7-5h-6---|---7-5h-6---|---7-5h-6---|
D|------------|------------|------------|
A|------------|------------|------------|
E|------------|------------|------------|

   A            E                A
      _ __             ___          __ 
   | | |  | |   |  |  |   |  |   | |  | | |
e|-5--------5-|12-----------12-|-5--------5-|
B|-5--------5-|12-----------12-|-5--------5-|
G|---7-5h-6---|---14-12h-14----|---7-5h-6---|
D|------------|----------------|------------|
A|------------|----------------|------------|
E|------------|----------------|------------|


Bar Chords:
----------

[A G A G]  [A G A G]  [D C D C]  
[A G A G]  [E D E D]  [A G A ']


Verse 4:
-------

   A              A              D
    __   _         __   _         ___    __
   |  | | | | |   |  | | | | |   |   |  |  | | |
e|-5----5-------|-5----5-------|10-----10--------|
B|-5h-7---8-----|-5h-7---8-----|10h-12----13-----|
G|--------------|--------------|-----------------|
D|--------------|--------------|-----------------|
A|--------------|--------------|-----------------|
E|--------------|--------------|-----------------|

   A              E                 A
    __   _         ___    __         __   _
   |  | | | | |   |   |  |  | | |   |  | | | | |
e|-5----5-------|12-----12--------|-5----5-------|
B|-5h-7---8-----|12h-14----15-----|-5h-7---8-----|
G|--------------|-----------------|--------------|
D|--------------|-----------------|--------------|
A|--------------|-----------------|--------------|
E|--------------|-----------------|--------------|

Twelve o'clock
And the place was packed
Front doors was locked
And the place was packed
When the police knock
Those doors flew back


Verse 5:
-------   

   A                     A
          _                     _
   | | | | |   | | | |   | | | | |   | | | |
e|-----------|---------|-----------|---------|
B|-----------|---------|-----------|---------|
G|-----------|---------|-----------|---------|
D|-2-2-4-2-2-|-2-2-4-2-|-2-2-4-2-2-|-2-2-4-2-|
A|-0-0-0-0-0-|-0-0-0-0-|-0-0-0-0-0-|-0-0-0-0-|
E|-----------|---------|-----------|---------|

   D                     A
          _                     _
   | | | | |   | | | |   | | | | |   | | | |
e|-----------|---------|-----------|---------|
B|-----------|---------|-----------|---------|
G|-2-2-4-2-2-|-2-2-4-2-|-----------|---------|
D|-0-0-0-0-0-|-0-0-0-0-|-2-2-4-2-2-|-2-2-4-2-|
A|-----------|---------|-0-0-0-0-0-|-0-0-0-0-|
E|-----------|---------|-----------|---------|

   E                     A
          _                     _
   | | | | |   | | | |   | | | | |   | | | |
e|-----------|---------|-----------|---------|
B|-----------|---------|-----------|---------|
G|-----------|---------|-----------|---------|
D|-----------|---------|-2-2-4-2-2-|-2-2-4-2-|
A|-2-2-4-2-2-|-2-2-4-2-|-0-0-0-0-0-|-0-0-0-0-|
E|-0-0-0-0-0-|-0-0-0-0-|-----------|---------|

And we kept on rockin'
Goin' 'round and 'round
Realin' and a rockin'
Oh baby, with that crazy sound
And it never stopped rockin'
Till the moon went down


Verse 6:
-------

   A            A            D
        __           __       __ 
   | | |  | |   | | |  | |   |  |  |   |  |
e|-5--------5-|-5--------5-|10-----------10-|
B|-5--------5-|-5--------5-|10-----------10-|
G|---7-5h-6---|---7-5h-6---|----2-10h-11----|
D|------------|------------|----------------|
A|------------|------------|----------------|
E|------------|------------|----------------|

   A            E                A
        __       __                   __ 
   | | |  | |   |  |  |   |  |   | | |  | |
e|-5--------5-|12-----------12-|-5--------5-|
B|-5--------5-|12-----------12-|-5--------5-|
G|---7-5h-6---|---14-12h-14----|---7-5h-6---|
D|------------|----------------|------------|
A|------------|----------------|------------|
E|------------|----------------|------------|

And we kept on rockin'
Goin' 'round and 'round
Realin' and a rockin'
Oh baby, with that crazy sound
And it never stopped rockin'
Till the moon went down


Verse 7:
-------

   A            A            D
        __           __       __ 
   | | |  | |   | | |  | |   |  |  |   |  |
e|-5--------5-|-5--------5-|10-----------10-|
B|-5--------5-|-5--------5-|10-----------10-|
G|---7-5h-6---|---7-5h-6---|----2-10h-11----|
D|------------|------------|----------------|
A|------------|------------|----------------|
E|------------|------------|----------------|

   A            E                A
        __       __                   __ 
   | | |  | |   |  |  |   |  |   | | |  | |
e|-5--------5-|12-----------12-|-5--------5-|
B|-5--------5-|12-----------12-|-5--------5-|
G|---7-5h-6---|---14-12h-14----|---7-5h-6---|
D|------------|----------------|------------|
A|------------|----------------|------------|
E|------------|----------------|------------|

And we kept on rockin'
Goin' 'round and 'round
Realin' and a rockin'
Oh baby, with that crazy sound
And it never stopped rockin'
Till the moon went down


Outro: 
-----

   A            A            D
        __           __       _ 
   | | |  | |   | | |  | |   | |  |   |  |
e|-5--------5-|-5--------5-|10----------10-|
B|-5--------5-|-5--------5-|10----------10-|
G|---7-5h-6---|---7-5h-6---|---2-10h-11----|
D|------------|------------|---------------|
A|------------|------------|---------------|
E|------------|------------|---------------|

   A            E                A
        __       __                   __ 
   | | |  | |   |  |  |   |  |   | | |  | |
e|-5--------5-|12-----------12-|-5--------5-|
B|-5--------5-|12-----------12-|-5--------5-|
G|---7-5h-6---|---14-12h-14----|---7-5h-6---|
D|------------|----------------|------------|
A|------------|----------------|------------|
E|------------|----------------|------------|

    ___     __   ___     __ 
   |   |   |  | |   |   |  |
e|-8s-(9)--9--9-8s-(9)--9--9-|
B|-9s(10)-10-10-9s(10)-10-10-|
G|-8s-(9)--9--9-8s-(9)--9--9-| (8 times)
D|---------------------------|
A|---------------------------|
E|---------------------------|

   A            A            D
        __           __       __ 
   | | |  | |   | | |  | |   |  |  |   |  |
e|-5--------5-|-5--------5-|10-----------10-|
B|-5--------5-|-5--------5-|10-----------10-|
G|---7-5h-6---|---7-5h-6---|----2-10h-11----|
D|------------|------------|----------------|
A|------------|------------|----------------|
E|------------|------------|----------------|

   A            E                A
        __       __                   __ 
   | | |  | |   |  |  |   |  |   | | |  | |
e|-5--------5-|12-----------12-|-5--------5-|
B|-5--------5-|12-----------12-|-5--------5-|
G|---7-5h-6---|---14-12h-14----|---7-5h-6---|
D|------------|----------------|------------|
A|------------|----------------|------------|
E|------------|----------------|------------|


Bar Chords: 
----------

[A G A G]  [A G A G]  [D C D C]
[A G A G]  [E D E D]  [A G A ']  Fade out...
        
Song Info  |  Tutorial  |  Tab (pdf)  |  Rate  | 
 
  Previous Song  Previous | Next  Next Song