+
- 
My Guitar Songbook
Good Evening  |  Sign In 
Crimson and Clover  

Info  |  Tab  |  Rate It  |  Share
Crimson and Clover - Tommy James and The Shondells
  Artist: Tommy James and The Shondells
 Audio Src: willc's Music Library
 Rated: ( 2 )  | 

Capo 2nd Fret - 4/4 Time

Verse 1:
-------

A   [A A  E E]  [D D]
Ahhh
      E            A   [A A  E E]  [D D]
Now I don't hardly know her
      E            A   [A A  E E]  [D D]
But I think I could love her
      E            A   [A A  E E]  [D D]  E
Crimson and clover


Verse 2:
-------

A   [A A  E E]  [D D]
Ahhh
      E          A   [A A  E E]  [D D]
Well if she come walkin' over
      E           A  [A A  E E]  [D D]
Now I been waitin' to show her
      E           A  [A A  E E]  [D D]
Crimson and clover
      E           A  [A A  E E]   D     E
Over and over


A  [G D] (7 times)  E  E


Bass Line:
---------
    _   _   _   _     _   _   _   _
   | | | | | | | |   | | | | | | | |
e|-----------------|-----------------|
B|-----------------|-----------------|
G|-----------------|-----------------|
D|-----------------|-----------------|
A|-----------------|---------5-5-5-5-|
E|-5-5-5-5-5-5-5-5-|-3-3-3-3---------|


Verse 3:
-------

A   [A A  E E]  [D D]
Yeah
    E           A   [A A  E E]  [D D]
My, my such a sweet thing
    E           A   [A A  E E]  [D D]
I wanna do everything
    E           A   [A A  E E]  [D D]
What a beautiful feeling
    E           A   [A A  E E]  [D D]   D     E
Crimson and clover                Over and over


A  [G D] (8 times)  E  E  E  E


Bridge:
------

Bb  F  Eb   F

Bb          F       Eb       F
Crimson and clover, over and over  (6 times)


Outro:
-----
    _   _ _   _   _ _     _   _ _   _   _ _
   | | | | | | | | | |   | | | | | | | | | |
e|-6-6-6-6-6-6-6-6-6-6-|-6-6-6-6-6-6-6-6-6-6-|
B|-8-6-6-6-6-8-6-6-6-6-|-8-6-6-6-6-8-6-6-6-6-|
G|-7-7-7-7-7-7-7-7-7-7-|-7-7-7-7-7-7-7-7-7-7-|
D|---------------------|---------------------|
A|---------------------|---------------------|
E|---------------------|---------------------|
Top
 
Previous Song  Previous | Next  Next Song