+
- 
My Guitar Songbook
Good Evening  |  Sign In 
Lucky Man 

Lucky Man - Emerson, Lake and Palmer
  Artist: Emerson, Lake and Palmer
 Audio Src: willc's Music Library
 Rated: ( 4 )  | 

Standard Tuning - 6/4 Time

Intro (2 times) and Picking Pattern for Verses:

   G                         D
    _   _   _   _   _   _     _   _   _   _   _   _ 
   | | | | | | | | | | | |   | | | | | | | | | | | |
e|-------3-----------5-----|-------5-----------5-----|
B|-----3---3-------3---3---|-----7---7-------7---7---|
G|---0-------0---0-------0-|---7-------7---7-------0-|
D|-5-----------5-----------|-0-----------0-----------|
A|-------------------------|-------------------------|
E|-------------------------|-------------------------|


G              D
He had white horses
G                   D
And ladies by the score
G                   D
All were dressed in satin
G                   D
And waiting by the door


Chorus:
Am             G           D    [Dsus4  D]
Oooh, What a lucky man he was
Am             G           D    [Dsus4  D]
Oooh, What a lucky man he was


G                 D
White lace and feathers
G                 D
They made up his bed
G                 D
A gold covered mattress
G                 D
On which he was laid


Chorus


Solo:

   G                  D     G                 D
e|------------------|-----|-----------------|--------------|
B|------------------|-----|--------3---3h5p-|-3---10-10h12-|  
G|------------------|-----|-0---s4----------|--------------|
D|---------0---0h2p-|-0---|-----------------|--------------|    
A|-----0h2----------|-----|-----------------|--------------| 
E|-3----------------|-----|-----------------|--------------|  

   G                    D          G            D
e|-10---14br14br14br-|-----------|-10---------|-----|
B|-------------------|-10--10h12-|----8p7-8-7-|-----|
G|-------------------|-----------|------------|-----|
D|-------------------|-----------|------------|-7---|
A|-------------------|-----------|------------|-----|
E|-------------------|-----------|------------|-----|

   G                    D           G                      D     D
e|---------|----------|-----|-----|-----------|----------|-----|-14---|
B|---------|----------|-----|-----|-----------|----------|-----|-15---|
G|---------|----------|-----|-----|---------2-|----------|-----|-14---|
D|---------|----------|-----|-----|-------2---|----------|-----|------|
A|-0-2-3s7-|----------|-5---|-----|-0-2-3-----|----------|-5---|------|
E|---------|-0-2-3-s7-|-----|-----|-----------|-0-2-3-s7-|-----|------|

G                 D
He went to fight wars
G                       D
For his country and his king
G                      D
Of his honor and his glory
G                 D
The people would sing


Chorus


G                D
A bullet had found him
G                    D
His blood ran as he died
G                D
No money could save him
G                      D
So he laid down and he died

Chorus
Top
 
Previous Song  Previous | Next  Next Song