+
- 
My Guitar Songbook
Good Evening  |  Sign In 
Higher and Higher 

Higher and Higher - Rita Coolidge
  Artist: Rita Coolidge
 Audio: BigGreenC's Music Library
 Rated: ( 11 )  | 

Standard Tuning - 4/4 Time

Chords:

D       = XX0232
D7      = XX0212
E/D     = XX0454
Em7/D   = XX0453
Em7-5/D = XX0333


Introduction:
 
     D       D7         E/D    E/D
Your love is lifting me higher
          Em7/D     Em7-5/D    D
Than I've ever been lifted before

   D                           D
      _     _     _   _   _       _     _     _   _   _
   | | | | | | | | | | | | |   | | | | | | | | | | | | |
e|—2-------------------------|-2-------------------------|
B|—3-------------------------|-3-------------------------|
G|-2-------------------------|-2-------------------------|
D|-0-----0-----0-----0-0-----|-0-----0-----0-----0-0-----|
A|---0-2---0-2---0-2-----0-2-|---0-2---0-2---0-2-----0-2-|
E|---------------------------|---------------------------|

```````````````

Riff (played at all verses):

  D                            Em7/D
      _     _     _   _   _       _     _     _   _   _
   | | | | | | | | | | | | |   | | | | | | | | | | | | |
e|—2-------------------------|-3-------------------------|
B|—3-------------------------|-5-------------------------|
G|—2-------------------------|-4-------------------------|
D|-0-----0-----0-----0-0-----|-0-----0-----0-----2-2-----|
A|---0-2---0-2---0-2-----0-2-|---0-2---0-2---0-2-----0-2-|
E|—--------------------------|—--------------------------|

  Em7/D        Em7-5/D         D
      _     _     _   _   _       _     _   _   _   _   _
   | | | | | | | | | | | | |   | | | | | | | | | | | | | |
e|-3-----------3-------------|-2---------------------------|
B|-5-----------3-------------|-3---------------------------|
G|-4-----------3-------------|-2---------------------------|
D|-0-----0-----0-----2-2-----|-0-----0-----0---------------|
A|---0-2---0-2---0-2-----0-2-|---0-2---0-2---------0-2-3-4-|
E|---------------------------|---------------2-3-4---------|


     D       D          Em7/D    Em7/D
Your love is lifting me higher
          Em7/D     Em7-5/D     D   D
Than I've ever been lifted before
	    D    D          Em7/D   Em7/D
So keep it up, quench my desire
	Em7/D       Em7-5/D      D  D
And I'll be at your side forever more


Now once, I was downhearted
Disappointment was my closest friend
But then you came and he soon departed
And you know he never showed his face again


Instrumental (one verse)


     D       D7         E/D    E/D
I'm so glad I finally found you
         Em7/D     Em7-5/D     D   D
Yes, that one in a million girl
         D         D7           E/D      E/D
When you wrap your loving' arms around me
           Em7/D     Em7-5/D       D     D
I can stand up and face the world again


Your love is lifting me higher
Than I've ever been lifted before
So keep it up, quench my desire
And I'll be at your side forever more
 
Previous Song  Previous | Next  Next Song