+
- 
My Guitar Songbook
Good Morning  |  Sign In 
Muddy Waters Style Guitar Lick  

Info  |  Tutorial  |  Tab  |  Rate It  |  Share
Muddy Waters Style Guitar Lick - Guy Fenocchi
 Arranged By: Guy Fenocchi
 Audio Src: Tutorial
 Rated: ( 2 )  | 

Key E - 4/4 Time

Key E:
-----

   E
            ___    _               ___    _   
     |   | |   |  | | |     |   | |   |  | | |
e|-----|----------------|-----|----------------|
B|-----|----------------|-----|----------------|
G|-----|---2br(2)p0-----|-----|---2br(2)p0-----|
D|-----|-2----------2---|-----|-2----------2---|
A|-----|----------------|-----|----------------|
E|---3-|--------------0-|---3-|--------------0-|

            ___    _               _   _   _
     |   | |   |  | | |     |   | | | | | | |    |
e|-----|----------------|-----|-------------0-|-(0)-|
B|-----|----------------|-----|---------------|-----|
G|-----|---2br(2)p0-----|-----|---0h1-0h1 0h1-|-(1)-|
D|-----|-2----------2---|-----|-2-------------|-----|
A|-----|----------------|-----|---------------|-----|
E|---3-|--------------0-|---3-|---------------|-----|


*:•..•:*¨¨*:•..•:*¨¨*:•..•:*¨¨*


Key A (Transposed - Original Key: E):
-----

   A
            ___    _               ___    _   
     |   | |   |  | | |     |   | |   |  | | |
e|-----|----------------|-----|----------------|
B|-----|----------------|-----|----------------|
G|-----|---7br(7)p5-----|-----|---7br(7)p5-----|
D|-----|-7----------7---|-----|-7----------7---|
A|-----|----------------|-----|----------------|
E|---8-|--------------5-|---8-|--------------5-|

            ___    _               _   _   _
     |   | |   |  | | |     |   | | | | | | |    |
e|-----|----------------|-----|-------------5-|-(5)-|
B|-----|----------------|-----|---------------|-----|
G|-----|---7br(7)p5-----|-----|---5h6-5h6 5h6-|-(6)-|
D|-----|-7----------7---|-----|-7-------------|-----|
A|-----|----------------|-----|---------------|-----|
E|---8-|--------------5-|---8-|---------------|-----|
Top
 
Previous Lick  Previous | Next  Next Lick