+
- 
My Guitar Songbook
Good Morning  |  Sign In 
SRV Blues Lick Embellishment  

Info  |  Tab  |  Rate It  |  Share
SRV Blues Lick Embellishment - Robert Renman
 Arranged By: Robert Renman
 Audio Src: Tutorial
 Rated: ( 3 )  | 

Key E - 4/4 Time

Key E
-----

    _ __    __ __     __ __    __ __ 
   | |  |  |  |  |   |  |  |  |  |  |    |
e|--------12-12-12--12-12--------------|-----|
B|---------------------------12v---12v-|-----|
G|--------12-14-14b-14-12----12v---12v-|-----|
D|-----14-----------------14-----------|-14--|
A|-------------------------------------|-----|
E|-------------------------------------|-----|


*:·..·:*¨¨*:·..·:*¨¨*:·..·:*¨¨*


Key A (Transposed - Original Key E):
-----

    _ _    __ __     __ __    __ __
   | | |  |  |  |   |  |  |  |  |  |    |
e|--------5--5--5---5--5--------------|-----|
B|---------------------------5v----5v-|-----|
G|--------5--7--7b--7--5-----5v----5v-|-----|
D|-----7------------------7-----------|-7---|
A|------------------------------------|-----|
E|------------------------------------|-----|
Top
 
Previous Lick  Previous | Next  Next Lick