My Guitar Songbook
Good Afternoon   |  Sign In 
Slow Blues Guitar Lick (Way... 

  Lick Info  |  Tutorial  |  Tab  |  Rate  | 
Slow Blues Guitar Lick (Way Up) - Robert Renman
Slow Blues Guitar Lick (Way Up) - Robert Renman ( 3 )
 Key E - 4/4 Time
 Arranged By Robert Renman
 Audio File From Tutorial
Rhythm Groove and Embellishment:
-------------------------------

   E
    _   __   _   _     _   __   _   _
   | | |  | | | | |   | | |  | | | | |
e|------------------|------------------|
B|------------------|------------------|
G|------------------|----------3p2p0---|
D|--------2---------|--------2-------2-|
A|------------------|------------------|
E|-0-0-3b---0-0-0-0-|-0-0-3b-----------|

    _   ___   _   _     _   __   __   _
   | | |   | | | | |   | | |  | |  | | |
e|-------------------|-----------------0-|
B|-------------------|---------------3---|
G|-------------------|------------s4-----|
D|-------0h2---------|--------2----------|
A|-------------------|-------------------|
E|-0-0-3b----0-0-0-0-|-0-0-3b---0--------|


Lick:
----
     __    __     ___
    |  |  |  |   |   | |
e|-----------------------|
B|-----------------------|
G|----12-14-14br(14)12---|
D|s14-----------------14-|
A|-----------------------|
E|-----------------------|

     ___       __    __       __ __
    |   |  |  |  |  |  |  |  |  |  |
e|-----------------------------------|
B|-15--------------------------------|
G|----14b-14-12h14-12h14-12----------|
D|-----------------------------12-14-|
A|-------------------------s14-------|
E|-----------------------------------|


*:·..·:*¨¨*:·..·:*¨¨*:·..·:*¨¨*



Key A (Transposed - Original Key E):
-----


Rhythm Groove:
-------------

   E
    _   _   _   _     _   _   _   _
   | | | | | | | |   | | | | | | | |
e|-----------------|-----------------|
B|-----------------|-----------------|
G|-------2---------|-------2---------|
D|-----------------|-----------------|
A|-0-0-3b--0-0-0-0-|-0-0-3b--0-0-0-0-|
E|-----------------|-----------------|

    _   _   _   _     _   _   _   _
   | | | | | | | |   | | | | | | | |
e|-----------------|-----------------|
B|-----------------|-----------------|
G|-------2---------|-------2---------|
D|-----------------|-----------------|
A|-0-0-3b--0-0-0-0-|-0-0-3b--0-0-0-0-|
E|-----------------|-----------------|


Lick:
----
    _   _     __
   | | | |   |  | |
e|------------------|
B|------------------|
G|---5-7-7br(7)-5---|
D|s7--------------7-|
A|------------------|
E|------------------|

    _      _   _       _ _
   | |  | | | | | |   | | |
e|--------------------------|
B|-8------------------------|
G|---7b-7-5h7-5h7-5s--------|
D|----------------------5-7-|
A|-------------------s7-----|
E|--------------------------|

        
  Lick Info  |  Tutorial  |  Tab  |  Rate  | 
 
  Previous Lick  Previous | Next  Next Lick   
Slow Blues Guitar Lick (Way Up) - Robert Renman

Please visit Robert Renman’s Tutorial for the original tab, full lesson, audio file and complete breakdown of this arrangement. All rights belong to the copyright holder.

Note: The tab portion of the PDF was transcribed from Robert Renman’s Tutorial.

 Tab (PDF)

Slow Blues Guitar Lick (Way Up) - Robert Renman
Slow Blues Guitar Lick (Way Up) - Robert Renman

Here is a handy guitar lesson about playing a cool lick to a Hendrix style rhythm. You simply play some nice and fat rhythm guitar, and then throw in a classy lick when you feel like it. Cool huh?

Listen to the album Electric Ladyland by Jimi Hendrix. The song Voodoo Chile has a rhythm similar to what I do in this video.

Read More Read More





Adder: Bill Charrette [ willc ]
Date: 3/15/2013
Audio: Robert Renman’s Tutorial
Rated: (3 Ratings )
Views: 1163
Tab: 588 Downloads
Genre: Licks