+
- 
My Guitar Songbook
Good Evening  |  Sign In 
Blues Scale Lick 1  

Info  |  Tutorial  |  Tab  |  Rate It  |  Share
Blues Scale Lick 1 - Robert Renman
 Arranged By: Robert Renman
 Audio Src: Tutorial
 Rated: ( 2 )  | 

Key A - 4/4 Time

    _ _ _   _   _ _ _ _   _ _ _     _   _
   | | | | | | | | | | | | | | |   | | | | | |
e|---5---8-5---------------------|-------------|
B|-5---5-------8-5h8p5---5-------|-------------|
G|---------------------8---8-7-5-|---7-5vv-----|
D|-------------------------------|-7-----------|
A|-------------------------------|-------------|
E|-------------------------------|-------------|


*:•..•:*¨¨*:•..•:*¨¨*:•..•:*¨¨*:


Key E (Transposed - Original Key A):
-----

    _ _ _   _   _ _ _ _   _ _ _     _   _
   | | | | | | | | | | | | | | |   | | | | | |
e|---0---3-0---------------------|-------------|
B|-0---0-------3-0h3p0---0-------|-------------|
G|---------------------3---3-2-0-|---2-0vv-----|
D|-------------------------------|-2-----------|
A|-------------------------------|-------------|
E|-------------------------------|-------------|
Top
 
Previous Lick  Previous | Next  Next Lick