+
- 
My Guitar Songbook
Good Morning  |  Sign In 
Funky Rhythm Lesson - Fly High  

Info  |  Tutorial  |  Tab  |  Rate It  |  Share
Funky Rhythm Lesson - Fly High - Robert Renman
 Arranged By: Robert Renman
 Audio Src: Tutorial
 Rated: ( 3 )  | 

Key Em - 4/4 Time

   MINOR (Box 3)
    _   _ _ _   _ _ _   _ _ __
   | | | | | | | | | | | | |  |
e|-------------------------------|
B|-------------------------------|
G|-------------------------------|
D|-------------5-----------------|
A|---7---5h7-------7---5h7-------|
E|-0--(0)---(0)-(0)-(0)---(0)(0)-|

    _   _ _ _   _ _   _ _ _
   | | | | | | | | | | | | |
e|---------------------------|
B|---------------------------|
G|---------------------------|
D|-------------5---7brp5-----|
A|---7---5h7-------------7p5-|
E|-0—-(0)---(0)-(0)----------|



*:•..•:*¨¨*:•..•:*¨¨*:•..•:*¨¨*


Key A (Transposed - Original Key E):
-----

   MINOR (Box 1)
    _   _ _ _   _ _ _   _ _ __
   | | | | | | | | | | | | |  |
e|-------------------------------|
B|-------------------------------|
G|-------------5-----------------|
D|---7---5h7-------7---5h7-------|
A|-0--(0)---(0)-(0)-(0)---(0)(0)-|
E|-------------------------------|

    _   _ _ _   _ _   _ _ _
   | | | | | | | | | | | | |
e|---------------------------|
B|---------------------------|
G|-------------5---7brp5-----|
D|---7---5h7-------------7p5-|
A|-0—-(0)---(0)-(0)----------|
E|---------------------------|


(0) = Ghost Note: 

A Ghost Note is a musical note with a rhythmic value, 
but no discernible pitch when played. This is played
by sounding a muted string. Muted to the point where
it is more percussive sounding than obvious and clear
in pitch.
Top
 
Previous Lick  Previous | Next  Next Lick