+
- 
My Guitar Songbook
Good Evening  |  Sign In 
Fake Slide Guitar Lick  

Info  |  Tutorial  |  Tab  |  Rate It  |  Share
Fake Slide Guitar Lick - Robert Renman
 Arranged By: Robert Renman
 Audio Src: Tutorial
 Rated: ( 3 )  | 

Key E - 4/4 Time

    ___ __    ___ __     __ __     __ __    __ _
   |   |  |  |   |  |   |  |  |   |  |  |  |  | | 
e|----12-12-----12-12-----12-12-----12-12----------|
B|----12-12-----12-12-----12-12-----12-12----------|
G|14b-------14b-------14b-------14b-------12b------|
D|--------------------------------------------14vv-|
A|-------------------------------------------------|
E|-------------------------------------------------|


*:·..·:*¨¨*:·..·:*¨¨*:·..·:*¨¨*:·..·:*


Key E (one octave lower)
------------------------

    __ _    __ __    __ __    __ __    __ _
   |  | |  |  |  |  |  |  |  |  |  |  |  | | 
e|----0-0-----0--0-----0--0-----0--0----------|
B|----0-0-----0--0-----0--0-----0--0----------|
G|-2b------2b-------2b-------2b-------0b------|
D|----------------------------------------2vv-|
A|--------------------------------------------|
E|--------------------------------------------|
Top
 
Previous Lick  Previous | Next  Next Lick