+
- 
My Guitar Songbook
Good Evening  |  Sign In 
Best Blues Vibrato (142)  

Info  |  Tutorial  |  Tab  |  Rate It  |  Share
Best Blues Vibrato (142) - Neal Walter
 Arranged By: Neal Walter
 Audio Src: Tutorial
 Rated: ( 2 )  | 

Key A - 4/4 Time

   A
    _   _   _   _     _   _   _   _ 
   | | | | | | | |   | | | | | | | |
e|-----------------|-----------------|
B|-----------------|-----------------|
G|---5-7br-5h7vv---|---5-7br---5vv---|
D|s7---------------|s7-------7-------|
A|-----------------|-----------------|
E|-----------------|-----------------|

    _   _   _   _     _   _   _   _
   | | | | | | | |   | | | | | | | |
e|-----------------|-------------5vv-|
B|-----------------|-----------------|
G|---5-7br-5h7vv---|---5-7br---5-----|
D|s7---------------|s7-------7-------|
A|-----------------|-----------------|
E|-----------------|-----------------|


*:·..·:*¨¨*:·..·:*¨¨*:·..·:*¨¨*


Key E (Transposed - Original Key A):
-----

   E
    _   _   _   _     _   _   _   _
   | | | | | | | |   | | | | | | | |
e|-----------------|-----------------|
B|-----------------|-----------------|
G|---0-2br-0h2vv---|---0-2br---0-----|
D|s2---------------|s2-------2-------|
A|-----------------|-----------------|
E|-----------------|-----------------|

   A
    _   _   _   _     _   _   _   _
   | | | | | | | |   | | | | | | | |
e|-----------------|-------------0---|
B|-----------------|-----------------|
G|---0-2br-0h2vv---|---0-2br---0-----|
D|s2---------------|s2-------2-------|
A|-----------------|-----------------|
E|-----------------|-----------------|
Top
 
Previous Lick  Previous | Next  Next Lick