+
- 
My Guitar Songbook
Good Evening  |  Sign In 
Blues Shuffle Fill Chords - Fill It  

Info  |  Tutorial  |  Tab  |  Rate It  |  Share
Blues Shuffle Fill Chords - Fill It - Robert Renman
 Arranged By: Robert Renman
 Audio Src: Tutorial
 Rated: ( 4 )  | 

Key A - 4/4 Time

12 Bar Solo:
-----------

   A
    _   _   _   _     _   _   _   _
   | | | | | | | |   | | | | | | | |
e|-----------------|-----------------|
B|-----8---7-5-----|-5---7-5---------|
G|-----9---7-6-----|-6---7-6---------|
D|-----------------|-----------------|
A|-0-0---0-------0-|---0-------0-3-4-|
E|-----------------|-----------------|

   A
    _   _   _   _     _   _   _   _
   | | | | | | | |   | | | | | | | |
e|-----------------|-----------------|
B|-----8---7-5-----|-5---7-5---------|
G|-----9---7-6-----|-6---7-6---------|
D|-----------------|-----------------|
A|-0-0---0-------0-|---0-------0-3-4-|
E|-----------------|-----------------|

   D
    __   __   __   __     __   __   __   __ 
   |  | |  | |  | |  |   |  | |  | |  | |  |
e|---------------------|---------------------|
B|------13--12-10------|10---12-10-----------|
G|------14--12-11------|11---12-11-----------|
D|-0--0----0---------0-|----0---------0------|
A|---------------------|----------------3--2-|
E|---------------------|---------------------|

   A
    _   _   _   _     _   _   _   _
   | | | | | | | |   | | | | | | | |
e|-----------------|-----------------|
B|-----8---7-5-----|-5---7-5---------|
G|-----9---7-6-----|-6---7-6---------|
D|-----------------|-----------------|
A|-0-0---0-------0-|---0-------0-----|
E|-----------------|-------------3-2-|

   E
    _   _   _   _     _   _   _   _
   | | | | | | | |   | | | | | | | |
e|-----------------|-----------------|
B|-----3---2-0-----|-0---2-0---------|
G|-----4---2-1-----|-1---2-1---------|
D|-----------------|-----------------|
A|-----------------|-----------------|
E|-0-0---0-------0-|---0-------0-3-4-|

   A
    _   _   _   _     _   _   _   _ 
   | | | | | | | |   | | | | | | | |
e|-----------------|-----------------|
B|-----8---7-5-----|-5---7-5---------|
G|-----9---7-6-----|-6---7-6---------|
D|-----------------|-----------------|
A|-0-0---0-------0-|---0-------0-3-4-|
E|-----------------|-----------------|
Top
 
Previous Lick  Previous | Next  Next Lick