+
- 
My Guitar Songbook
Good Morning  |  Sign In 
Slow Blues Shuffle  

Info  |  Tutorial  |  Tab  |  Rate It  |  Share
Slow Blues Shuffle - Robert Renman
 Arranged By: Robert Renman
 Audio Src: Tutorial
 Rated: ( 3 )  | 

Key E - 4/4 Time

12 Bar Solo:
-----------

   E                 E
    _   _   _   _     _   _   _   _ _ _
   | | | | | | | |   | | | | | | | | | |
e|-----------------|-------------0-0-0-0-|
B|-----------------|---------------------|
G|-----------------|------------s4s3-2h1-|
D|---------------2-|---------------------|
A|-2-2-4-4-2-2-----|-2-2-4-4-2(2)--------|
E|-0-0-0-0-0-0-3b--|-0-0-0-0-0(0)--------|

   E                 E
    _   _   _   _     _   _   _   _ _ _
   | | | | | | | |   | | | | | | | | | |
e|-----------------|-----------0-0-0-0-0-|
B|-----------------|-----------0-2-5-8-5-|
G|-----------------|---------------------|
D|---------------2-|---------------------|
A|-2-2-4-4-2-2-----|-2-2-4-4-2(2)--------|
E|-0-0-0-0-0-0-3b--|-0-0-0-0-0(0)--------|

   A                 A
    _   _   _   _     _   _   _   _ _ _
   | | | | | | | |   | | | | | | | | | |
e|-----------------|-------------0-0-0-0-|
B|-----------------|---------------------|
G|---------------2-|------------s4s3-2h1-|
D|-2-2-4-4-2-2-----|-2-2-4-4-2-2---------|
A|-0-0-0-0-0-0-3b--|-0-0-0-0-0-0---------|
E|-----------------|---------------------|

   E                 E
    _   _   _   _     _   _   _   _ _ _
   | | | | | | | |   | | | | | | | | | |
e|-----------------|-----------0-0-0-0-0-|
B|-----------------|-----------0-2-5-8-7-|
G|-----------------|---------------------|
D|---------------2-|---------------------|
A|-2-2-4-4-2-2-----|-2-2-4-4-2(2)--------|
E|-0-0-0-0-0-0-3b--|-0-0-0-0-0(0)--------|

   B7                    A
    _   _   _   _ _ _     _   _   _   _
   | | | | | | | | | |   | | | | | | | |
e|-2-------------------|-----------------|
B|-0-------------------|-----------------|
G|-2---------------4---|-----------------|
D|-1---------------4---|-2-2-4-4-2-2---2-|
A|-2-----------0s6---6-|-0-0-0-0-0-0-----|
E|---------------------|-------------3b--|

   E                 B7
    _   _   _   _     _   _   _   _ _ _ 
   | | | | | | | |   | | | | | | | | | |
e|-----------------|-------------2-------|
B|-----------------|-------------0-------|
G|-----------------|-------------2-------|
D|---------------2-|-------------1-------|
A|-2-2-4-4-2-2-----|-2-2---0-1-2-2-------|
E|-0-0-0-0-0-0-3b--|-0-0-4---------------|
Top
 
Previous Lick  Previous | Next  Next Lick