+
- 
My Guitar Songbook
Good Evening  |  Sign In 
Blues Turnarounds Lick 2  

Info  |  Tutorial  |  Tab  |  Rate It  |  Share
Blues Turnarounds Lick 2 - Robert Renman
 Arranged By: Robert Renman
 Audio Src: Tutorial
 Rated: ( 2 )  | 

Key A - 4/4 Time

   A
    _ _   _ _   _ _   _   _ _   _ 
   | | | | | | | | | | | | | | | | 
e|-------5-------------------------|
B|---5-7---8-5---------------------|
G|-6-----------8-7-5---------------|
D|-------------------7-------------|
A|-----------------------5-6-7vv---|
E|---------------------------------|


*:·..·:*¨¨*:·..·:*¨¨*:·..·:*¨¨*


Key E (Transposed - Original Key A):
-----

   E
    _ _   _ _   _ _   _   _ _   _ 
   | | | | | | | | | | | | | | | | 
e|-------0-------------------------|
B|---0-2---3-0---------------------|
G|-1-----------3-2-0---------------|
D|-------------------2-------------|
A|-----------------------0-1-2vv---|
E|---------------------------------|
Top
 
Previous Lick  Previous | Next  Next Lick