My Guitar Songbook
Good Morning  |  Sign In 
Blues Turnarounds Lick 4 

Lick Info  |  Tutorial  |  Tab  |  Rate
Blues Turnarounds Lick 4 - Robert Renman ( 3 )
 Key E - 4/4 Time
 Arranged By: Robert Renman
 Audio File From: Tutorial
   B           A                                C9 B9
                          _ _   _ _   _ _   _ _
   |  | |  |   | | | |   | | | | | | | | | | | | | |
e|-----------|---------|-----------------------------|
B|-----------|---------|-------------------------8-7-|
G|-----------|---------|-------------------------7-6-|
D|-----------|---------|-----6---6-7p6-7-8p7-8-9-8-7-|
A|-9-11-9-11-|-7-9-7-7-|-2-7---7-----------------7-6-|
E|-7--7-7--7-|-5-5-5-5-|-0---------------------------|


*:·..·:*¨¨*:·..·:*¨¨*:·..·:*¨¨*


Key A (Transposed - Original Key E):
-----

   E         D                                 F9  E9
                        _ _   _ _   _ _   _ _
   | | | |   | | | |   | | | | | | | | | | | |  |  |
e|---------|---------|-------------------------------|
B|---------|---------|-------------------------12-11-|
G|---------|-2-4-2-4-|-----6---6-7p6-7-8p7-8-9-11-10-|
D|---------|-0-0-0-0-|-2-7---7-----------------12-11-|
A|-2-4-2-4-|---------|-0-----------------------11-10-|
E|-0-0-0-0-|---------|-------------------------------|
        
Lick Info  |  Tutorial  |  Tab (pdf)  |  Rate  | 
 
  Previous Lick  Previous | Next  Next Lick