+
- 
My Guitar Songbook
Good Evening  |  Sign In 
E Blues Lick - Squeeze It  

Info  |  Tutorial  |  Tab  |  Rate It  |  Share
E Blues Lick - Squeeze It - Robert Renman
 Arranged By: Robert Renman
 Audio Src: Tutorial
 Rated: ( 1 )  | 

Key E - 4/4 Time

   E
        _   _        _   _   ___ __
   | | | | | |   |  | | | | |   |  | |   | | | | 
e|-----------0-|-3b-0-----0------------|---------|
B|-------0-2---|------0-3b-------------|---------|
G|-------------|------------2br(2)p0---|---------|
D|-------------|---------------------2-|---------|
A|-------------|-----------------------|---------|
E|-------------|-----------------------|-0-------|


*:•..•:*¨¨*:•..•:*¨¨*:•..•:*¨¨*:


Key A (Transposed - Original Key E):
-----

   A
        _   _        _   _   ___ __
   | | | | | |   |  | | | | |   |  | |   | | | |
e|-----------5-|-8b-5-----5------------|---------|
B|-------5-7---|------5-8b-------------|---------|
G|-------------|------------7br(7)p5---|---------|
D|-------------|---------------------7-|---------|
A|-------------|-----------------------|---------|
E|-------------|-----------------------|-5-------|
Top
 
Previous Lick  Previous | Next  Next Lick