+
- 
My Guitar Songbook
Good Evening  |  Sign In 
TripLit Lick 

TripLit Lick - Robert Renman
 Arranged By: Robert Renman
 Audio Src: Tutorial
 Rated: ( 3 )  | 

Key A - 4/4 Time

Key A:
-----

   A
         _ _     _ _   _ _   _ _   _ _
   | |  | | |   | | | | | | | | | | | | |   |  |
e|------------|---------------------------|11-12---|
B|------------|-----5---------------------|11-12---|
G|------------|-5h6---7p5-6---------------|11-12---|
D|----------7-|-------------7p5-----------|10-11---|
A|------------|-----------------7-6p5-----|--------|
E|------------|-----------------------8-5-|--------|


*:·..·:*¨¨*:·..·:*¨¨*:·..·:*¨¨*


Key E (Transposed - Original Key A):
-----

   E
         _ _     _ _   _ _   _ _   _ _
   | |  | | |   | | | | | | | | | | | | |   |  |
e|------------|---------------------------|-6--7---|
B|------------|-----0---------------------|-6--7---|
G|------------|-0h1---2p0-1---------------|-6--7---|
D|----------2-|-------------2p0-----------|-5--6---|
A|------------|-----------------2-1p0-----|--------|
E|------------|-----------------------3-0-|--------|
Top
 
Previous Lick  Previous | Next  Next Lick