+
- 
My Guitar Songbook
Good Morning  |  Sign In 
Triple Blues Lick 2  

Info  |  Tutorial  |  Tab  |  Rate It  |  Share
Triple Blues Lick 2 - Robert Renman
 Arranged By: Robert Renman
 Audio Src: Tutorial
 Rated: ( 3 )  | 

Key E - 4/4 Time

Key E
-----

   E
    _ _   _ _   _ _   _ __   _ _ 
   | | | | | | | | | | |  | | | |
e|-----0-----3-0------------------|
B|---0---3-0-----3-0--------------|
G|-2b----------------2b2p0--------|
D|--------------------------2-----|
A|--------------------------------|
E|----------------------------0---|


*:·..·:*¨¨*:·..·:*¨¨*:·..·:*¨¨*


Key A
-----

   A
    _ _   _ _   _ _   _ __   _ _ 
   | | | | | | | | | | |  | | | |
e|-----5-----8-5------------------|
B|---5---8-5-----8-5--------------|
G|-7b----------------7b7p5--------|
D|--------------------------7-----|
A|--------------------------------|
E|----------------------------5---|
Top
 
Previous Lick  Previous | Next  Next Lick